Anda di halaman 1dari 3

Song : Yume Sekai

Artist : Haruka Tomatsu


Anime : Sword Art Online ED
Play : Capo 3
Tuning : Standard
Arranged for solo-guitar by animelodies1
yIntro. z
|=1===2===3===4===5===6===7===8===|=1===2===3===4===5===6===7===8===|=1===2===3=
==4===5===6===7=====8===|=1===2===3===4===5===6===7===8===|
|---------------------------------|---------------------------------|----------------------------------|---------------------------------|
|---------1-------0---------------|---------1-------3---1---0---1---|->--->->-/------------3-s4-s3-1---|-1---0---1---0-------------------|
|-0--->--->--->--->--->---2-------|-0---------------0---------------|-2-----2-/--1-------1--->----->---|-2--->--->---0-------2---0-------|
|-----2-------2-------0-------0---|-----2-------2-------------------|-3-----3-/--3-----3----->----->---|-----------------0---------------|
|-3---------------2---------------|-0-------------------------------|----------------------------------|---------------------------------|
|---------------------------------|-----------------3---------------|-1-------X--1---------------------|-3-----------3-------------------|
yA z
|=1===2===3===4===5===6===7===8===|=1===2===3===4===5===6===7===8===|=1===2===3=
==4===5===6===7===8===|=1===2===3===4===5===6===7===8===|
|---------------------------------|---------------------------------|--------------------------------|---------------------------------|
|-----1---1---1-0-----1-3-----0-1-|->-------------------1---0-------|------------0-1->--->--->--->---|-1---------------1-------0-------|
|->--->---0-----------------0-----|->-----------0-------------2-0---|-2--->--->--/---------0-----2---|---------1-------0---------------|
|-------------------------2-------|->-------2-----------------------|---------3----------------3-----|-----3-------3-------0---3-------|
|-3---------------3---3-----------|->---3---------------------------|-----3--------------------------|---------------------------------|
|---------------------------------|-0---------------0---0-----------|-1--------------1---1-----------|-1---------------3---------------|
|=1===2===3===4===5===6===7===8===|=1===2===3===4===5===6===7===8===|=1===2===3=
==4===5===6===7===8===|=1===2===3===4===5===6===7===8===|
|---------------------------------|---------------------------------|--------------------------------|---------------------------------|
|-----1---1---1-0-----1-3-----0-1-|->-----------3--->---1---0-------|------------0-1->--->--->---/---|-1--->--->--->-----------3--->---|
|---------0-----------------0-----|->-------0-----------------2-0---|-2--->--->--/-------0-------2---|---------1--->---5-------4--->---|
|-------------------------2-------|->---2--->--->--->--->--->--->---|---------3--------------3---/---|-------------3-------0--->--->---|
|-3---------------3---3-----------|->--->--->--->--->--->--->--->---|-----3--------------------------|---------------------------------|
|---------------------------------|-0---------------0---0-----------|-1--------------1---1-------3---|-4---3---1-------3---------------|
yB z
|=1===2===3===4===5===6===7===8===|=1===2===3===4===5===6===7===8===|=1===2===3=
==4===5===6===7===8===|=1===2===3===4===5===6===7===8===|
|-----0-0-----0-1-----0-----------|-----0-1->---0-/-----------------|-----0-0----0-1-----0-----------|---------------------------------|
|-----1-1-----1-3-----1---3---1---|-3--->--->--->-3->--->--->--->---|-----------

--0--->--->---3---1---|-3---1--->--->--->---1--->--->---|
|-------------------------4---2---|-4--->--->--->--->--->---4-------|-----0--->-->--->--->--->--->---|-2--->--->---0---2--->--->--->---|
|---------------------------------|---------------------0-------0---|--------------------------------|---------2-----------------------|
|---------------------------------|---------------------------------|------------------------2---1---|-0-----------------------3-------|
|-1-------1-------1-------1-------|-1-------1-------1-------1-------|-0-------0------0-------/-------|-----------------3-----------3---|
|=1===2===3===4===5===6===7===8===|=1===2===3===4===5===6===7===8===|=1===2===3=
==4===5===6===7===8===|=1===2===3===4===5===6===7===8===|
|-----0-0-----0-1-----0-----------|---------------------------------|--------------------------------|-5--->---3--->-------------------|
|-----1-1-----1-3-----1---3---1---|-3---5-6-----5-3->--->--->-------|-1-------1------1-------1---3---|-------------1---0-----1-3-1-0-1-|
|-------------------------4---2---|-4--->--->--->--->--->---4-------|-----2------2---0---2--->--->---|-----0---2--->---0---------------|
|---------------------------------|---------------------5-------7---|-0-------0----------------------|---------------------0-----------|
|---------------------------------|---------------------------------|--------------------------------|---------------------------------|
|-1-------1-------1-------1-------|-3-------3-------3-------3-------|----------------0-------0-------|-1---------------3---------------|
yChorus z
|=1===2===3===4===5===6===7===8===|=1===2===3===4===5===6===7===8===|=1===2===3=
==4===5===6===7===8===|=1===2===3===4===5===6===7===8===|
|-0---/---3---5---3-------------0-|->-----------1-0->-/-------------|-0---1---3--5---3---1---0---1---|-3-------------6->-5->-3-------0-|
|-----6---------------6---5---3---|-------------------3-------------|--------------------------------|---------------------------6-----|
|-0--->---5--->--->--->--->--->---|---------2--->-----------1-------|-0---2---4--5---4---2---0---2---|-3-------3---5-------0--->--->---|
|---------------------------------|-----3--->--->-------2-------2---|--------------------------------|-----3---------------------------|
|-3---------------3---3-----------|-2--->--->--->-------------------|-0--------------0---0-----------|-----------------3---------------|
|---------------------------------|-----------------0---------------|--------------------------------|-3-------------------------------|

|=1===2===3===4===5===6===7===8===|=1===2===3===4===5===6===7===8===|=1===2===3=
==4===5===6===7===8===|=1===2===3===4===5===6===7===8===|
|->-------------------------------|-0-----------------------3--->---|->-------3----------------------|-------------------------0-------|
|---3-1--->--->---0---1---3---0---|-0-----------3-3->-1->--->---1---|->----------1--->--->-0-0---1-1-|->--->--->--->---3-----------1---|
|->--->--->---0---0---2---4---0---|->-------0---4-4->-2->--->--->---|->---2----------------0---------|-2-------0-------2---------------|
|---------------------------------|-----2--->--->-------2--->--->---|-0------------------0-----------|-2-------2-----------------------|
|---------3-----------------------|-----------------0---------------|--------------------------------|-0-------------------------------|
|-1---------------1---------------|-0-------------------------------|----------------3---------------|---------3-------2---------------|

|=1===2===3===4===5===6===7===8===|=1===2===3===4===5===6===7===8===|
|-1--->---0-----------------------|---------------------------------|
|->--->--->-------6--->--->--->---|-/-------------------------------|
|-2--->--->---5--->--->-4-4---5-5-|->-------------------------------|
|-0--->--->--->---0--->--->--->---|-/-------------------------------|
|---------------------------------|---------------------------------|
|-----------------3---------------|-/-------------------------------|
> = Prolong - L
/ = Staccato -
s = Slide - X
C h
h = Hammer on - n
}
O E I
p = Pull off - v
O E I t
b = Bending - `
[ L
O
X = Mute - u
b V
O
N.H. = Natural Harmonics - i `
T.H. = Touch Harmonics - ^ b ` n [
P.M. = Palm Mute - u
b W ~
[ g
tp = Tapping - ^ b s
O
= Down-stroke
= Up-stroke

n [
j N X
j N X