Anda di halaman 1dari 3

Armandinho - Pescador | Cifra Club

2013-12-19 15.32

Pescador

Armandinho
Tono: F#

(intro)
F# C# B
E|-2---4---2------------------------|
B|-2---4---2------------------------|
G|-3---6---4------4-3-1-------------|
D|-4---6---4------------4-1---------|
A|-4---4---2------------------------|
E|-2--------------------------------|

esse som
feito no teclado
mas fica legal
na guitarra
com som limpo

E|-------------------------------|
B|-7-----------------------------|
G|---8-6--6-6h8-8-8-8-6h8-6------|
D|--------------------------8--4-|
A|-------------------------------|
E|-------------------------------|

F#
C#
D#m
My brother no v entrar nesse mar,
B

C#

F#

no vai, no vai no,


C#
D#m
B
hoje vamos ter que ver o surf da beira
C#
F#
tem rede no mar,
C#

D#m

C#

j faz tempo que soltam as redes em qualquer lugar,


F#
C#
D#m
B C#
no pier tambm tem chumbada na cabea, esquea.
F#
C#
D#m7
Seu pescador paz e amor,
B
C#
F#
Cuidado com essa rede no mar,
C#
D#m7
Se voce ver que o mar t bom,
B
C#
F#
S quero meu cantinho pra surfar (bis)
F#
C#
D#m
My brother no v entrar nesse mar,
B
C#
F#
no vai, no vai no,
C#
D#m
hoje vamos ter que ver o surf da beira
C#

F#

tem rede no mar,


C#

D#m

http://CIfraclub.com/armandinho/pescador/imprimir.html

B C#

Sida 1 av 3

Armandinho - Pescador | Cifra Club

2013-12-19 15.32

j faz tanto tempo que soltam as redes em qualquer lugar,


F#
C#
D#m
B C#
no molhe tambm tem pedrada na cabea, esquea.

F#
C#
D#m7
Seu pescador paz e amor,
B
C#
F#
Cuidado com essa rede no mar,
C#
D#m7
Se voce ver que o mar t bom,
B
C#
F#
S quero meu cantinho pra surfar (bis)
(para ficar com uma harmonia maior troque o C# por C#9 e B por B9 )

B9

C#

C#9

D#m

D#m7

F#

http://CIfraclub.com/armandinho/pescador/imprimir.html

Sida 2 av 3

Armandinho - Pescador | Cifra Club

http://CIfraclub.com/armandinho/pescador/imprimir.html

2013-12-19 15.32

Sida 3 av 3