Anda di halaman 1dari 4

Tits - Preciso Saber Viver | Cifra Club

1 de 4

http://www.cifraclub.com.br/titas/e-preciso-saber-viver/imprimir.html

Tits
Tom: D

(intro) D D7+ D7 G Gm6 D Bm E G A


D
Quem espera que a vida
D7+
Seja feita de iluso
D7
Pode at ficar maluco
G
Ou morrer na solido
Gm6
preciso ter cuidado
D
Bm7
Pra mais tarde no sofrer
E
G
A
preciso saber viver
D
Toda pedra no caminho
D7+
Voc pode retirar
D7
Numa flor que tem espinhos
G
Voc pode se arranhar
Gm6
Se o bem e o mal existem
D
Bm7
Voc pode escolher
E
G
A
preciso saber viver
(refro)
G
D
Bm
preciso saber viver
G
D
Bm
preciso saber viver
G
D
Bm
preciso saber viver
G
D
Bm
preciso saber viver
E
G A
Saber viver
Solo da Viola de ao em 1:29: D D7+ D7 G Gm6 D Bm E G A

28/12/2013 19:51

Tits - Preciso Saber Viver | Cifra Club

2 de 4

http://www.cifraclub.com.br/titas/e-preciso-saber-viver/imprimir.html

E
B
G
D
A
E

D
D7M
|----------7--5--7------------------------------------------|----5/7-------------5/7------------------------------------|------------------------------------4/6--------------------|-----------------------------------------------------------|-----------------------------------------------------------|------------------------------------------------------------

E
B
G
D
A
E

D7
G
|----------7----5----7---9/10---12\10/14--------12---10/12--|----5/7---------------------------------------------------12
|-----------------------------------------------------------|-----------------------------------------------------------|-----------------------------------------------------------|------------------------------------------------------------

E
B
G
D
A
E

Gm6
D
E
|-----------------------------------------------------------|----8/11---11/13\11----10\2------------------9/12----------|-----------------------9\1---------5\7/9-7/9-9/12----------|-----------------------------------------------------------|-----------------------------------------------------------|------------------------------------------------------------

E
B
G
D
A
E

G
A
|-----------------------------------------------------------|----12-12-12---14------------------------------------------|----12-12-12---14------------------------------------------|-----------------------------------------------------------|-----------------------------------------------------------|------------------------------------------------------------

Solo do Sax em 1:50: D D7+ D7 G Gm6 D E G A


E
B
G
D
A
E

|-----------------------------------------------------------|----------15------15----17--15--17---15---14-14--15--17----|--14--16------16-------------------------------------------|-----------------------------------------------------------|-----------------------------------------------------------|------------------------------------------------------------

E
B
G
D
A
E

|-----------------------------------------------------------|----------------------------15--17--15--17/19--17--15--17--|--16--14-14----------14--16-------------------------------16
|-------------14--16----------------------------------------|-----------------------------------------------------------|------------------------------------------------------------

28/12/2013 19:51

Tits - Preciso Saber Viver | Cifra Club

3 de 4

http://www.cifraclub.com.br/titas/e-preciso-saber-viver/imprimir.html

E
B
G
D
A
E

|-----------------------------------------------------------|----------17/21--17--15--17/21--21--17--15-----------------|--16--14---------------------------------------------------|-----------------------------------------------------------|-----------------------------------------------------------|------------------------------------------------------------

E
B
G
D
A
E

|-----------------------------------------------------------|------15-17/21--17--15-15--17------------------------------|--16-------------------------------------------------------|-----------------------------------------------------------|-----------------------------------------------------------|------------------------------------------------------------

D
Quem espera que a vida
D7+
Seja feita de iluso
D7
Pode at ficar maluco
G
Ou morrer na solido
Gm6
preciso ter cuidado
D
Bm
Pra mais tarde no sofrer
E
G
A7
preciso saber viver
D
Toda pedra no caminho
D7+
Voc pode retirar
D7
Numa flor que tem espinhos
G
Voc pode se arranhar
Gm6
Se o bem e o mal existem
D
Bm7
Voc pode escolher
E
G
A7
preciso saber viver
(refro)

28/12/2013 19:51

Tits - Preciso Saber Viver | Cifra Club

4 de 4

3
x

http://www.cifraclub.com.br/titas/e-preciso-saber-viver/imprimir.html

G
D
preciso saber viver
G
D
preciso saber viver
G
D
Bm7
preciso saber viver
G
D
Bm
preciso saber viver
E
G A
Saber viver

A7

Bm

Bm7

D7

D7+

D7M

Gm6

28/12/2013 19:51