Anda di halaman 1dari 4

8/7/13 Charlie Brown Jr.

- S Os Loucos Sabem | Cifra Club


www.cifraclub.com.br/charlie-brown-jr/so-os-loucous-sabem/imprimir.html 1/4
SOsLoucosSabem
CharlieBrownJr.
Tom: G
Capotraste na 3 casa
Intro:
Riff 1:
Parte 1 Parte 2 Parte 3 Parte 4
E|---0--0---|----0----|----0----|---0--0----0----0--|
B|---0--0---|----0----|----0----|---0--0----0----0--|
G|--14/16---|---14----|---17----|--14/16---14---12--|
D|----------|---------|---------|-------------------|
A|--12/14---|---12----|---15----|--12/14---12---10--|
E|---0--0---|----0----|----0----|---0--0----0----0--|
C#m7 A9
Primeira Parte:
C#m A9
Agora eu sei
E
Exatamente o que fazer
C#m E B4
Bom recomear, poder contar com voc
C#m
Pois eu me lembro de tudo, irmo
A9 E
Eu estava l tambm
F#m
O homem quando est em paz
E/G# A9
No quer guerra com ningum
C#m A9
Eu segurei minhas lgrimas
E
Pois no queria demonstrar a emoo
C#m E
J que estava ali s pra observar
B4
E aprender um pouco mais sobre a percepo
C#m A9 E
Eles dizem que impossvel encontrar o amor sem perder a razo
F#m
Mas pra quem tem pensamento forte
E/G# A9
o impossvel s questo de opinio
Refro:
Validation failed. Please retry or wait till
W3C allows validation again
X
8/7/13 Charlie Brown Jr. - S Os Loucos Sabem | Cifra Club
www.cifraclub.com.br/charlie-brown-jr/so-os-loucous-sabem/imprimir.html 2/4
C#m A9 E
E disso os loucos sabem
C#m E B4
S os loucos sabem
C#m A9 E
Disso os loucos sabem
F#m E/G# A9
S os loucos sabem
(Repete Intro)
Segunda Parte:
C#m A9 E
Toda a positividade eu desejo a voc
C#m E B4
Pois precisamos disso nos dias de luta
C#m A9
O medo cega os nossos sonhos
E
O medo cega os nossos sonhos
F#m E/G# A9
Menina linda, eu quero morar na sua rua
C#m A9 E
Voc deixou saudade
C#m E B4
Voc deixou saudade
C#m
Quero te ver outra vez
A9 E
Quero te ver outra vez
F#m E/G# A9
Voc deixou sau____dade
Riff 2 (2x):
( E5 E7M E5 E7M E5 )
( C#m C#9 C#m C#9 C#m )
E|----------------------------------------------------|
B|--8--8--10--10--12--12--12--12--12--12--12--12------|
G|----------------------------------------------------|
D|--5--5--7---7---9---9---9---9---9---9---9---9-------|
A|--0--0--0---0---0---0---0---0---0---0---0---0-------|
E|----------------------------------------------------|
Primeira Parte:
8/7/13 Charlie Brown Jr. - S Os Loucos Sabem | Cifra Club
www.cifraclub.com.br/charlie-brown-jr/so-os-loucous-sabem/imprimir.html 3/4
C#m A9
Agora eu sei
E
Exatamente o que fazer
C#m E B4
Bom recomear, poder contar com voc
C#m
Pois eu me lembro de tudo, irmo
A9 E
Eu estava l tambm
F#m
O homem quando est em paz
E/G# A9
No quer guerra com ningum
(Repete Intro)
A9
*C9comforma
deA9
B4
*D4comforma
deB4
C#9
*E9comforma
deC#9
C#m
*Emcomforma
deC#m
C#m7
*Em7com
formadeC#m7
E
*Gcomforma
deE
E/G#
*G/Bcomforma
deE/G#
E5
*G5comforma
deE5
E7M
*G7Mcom
formadeE7M
F#m
*Amcomforma
deF#m
8/7/13 Charlie Brown Jr. - S Os Loucos Sabem | Cifra Club
www.cifraclub.com.br/charlie-brown-jr/so-os-loucous-sabem/imprimir.html 4/4