Anda di halaman 1dari 7

Wasting Love

Iron Maiden
Tom: G

(solo intro)
E|----------5-7b-5---5-7---------------------------|
B|--5-7h8----------7-----8-7-8-7---5---5-----------|
G|--------5--------------------------7-------------| (4x)
D|-------------------------------------------------|
A|-------------------------------------------------|
E|-------------------------------------------------|

(dedilhado intro)
Em9
D11/C
Em9
D11/C
E|------------------------------------------------------------------|
B|---------------------------3-----------------------------------3--|
G|---------0-------------0---------------------0-------------0------|(2x)
D|-----4-------4-------4---4-----4---------4-------4-------4---4----|
A|---2---2---2---2---3---------3---3-----2---2---2---2---3----------|
E|-0-----------------------------------0----------------------------|

(verso)
Em9
D11/C
Em9
D11/C
E|------------------------------------------------------------------|
B|---------------------------3-----------------------------------3--|
G|---------0-------------0---------------------0-------------0------|
D|-----4-------4-------4---4-----4---------4-------4-------4---4----|
A|---2---2---2---2---3---------3---3-----2---2---2---2---3----------|
E|-0-----------------------------------0----------------------------|

Am7

D11/A

Am7

D11/A

E|------------------------------------------------------------------|
B|---------1-----------------3-----------------1-----------------3--|
G|-----0-------0---------0-------0---------0-------0---------0------|
D|---2---2---2---2-----4---4---4---4-----2---2---2---2-----4---4----|
A|-0-----------------0-----------------0-----------------0----------|
E|------------------------------------------------------------------|

(primeira parte)
Em9

D11/C

Em9

D11/C

Maybe one day I\'ll be an honest man


Em9

D11/C

Em9

D11/C

Up till now I\'m doing the best I can


Am7
D11/A
Am7
D11/A
Em9
D11/C
Long
roads,
long
days, of sunrise, to sunset

Em9
D11/C
Sunrise to sunset
Em9
D11/C
Em9
D11/C
Dream on brother, while you can
Em9
D11/C
Em9
D11/C
Dream on sister, I hope you find the one
Am7

D11/A

Am7

All of our lives

D11/A

Em9

D11/C

covered up quickly by the tides

Em9

D11/C

of time

(refro)
E5

C5

D5

G5 F5

Spend your days full of emptiness


E5

C5
D5
Spend your years full of loneliness

E5

C5
D5
G5 D5
Wasting love, in a desperate caress

E5

C5

D5

G5 F#5

C5

Rolling shadows of nights

E|--------------------------|
B|-----------------------3--|
G|-----0-----0-----------0--|(3x)
D|---4-----2-------------2--|
A|-5-----3--------2------0--|
E|--------------0-----------|

E|--------------------|
B|--------------------|
G|-----0-----0--------|
D|---4-----2----------|
A|-5-----3-------2----|
E|-------------0------|

(verso)
Em9
D11/C
Em9
D11/C
E|------------------------------------------------------------------|
B|---------------------------3-----------------------------------3--|
G|---------0-------------0---------------------0-------------0------|
D|-----4-------4-------4---4-----4---------4-------4-------4---4----|
A|---2---2---2---2---3---------3---3-----2---2---2---2---3----------|
E|-0-----------------------------------0----------------------------|

Am7

D11/A

Am7

D11/A

E|------------------------------------------------------------------|
B|---------1-----------------3-----------------1-----------------3--|
G|-----0-------0---------0-------0---------0-------0---------0------|
D|---2---2---2---2-----4---4---4---4-----2---2---2---2-----4---4----|
A|-0-----------------0-----------------0-----------------0----------|
E|------------------------------------------------------------------|

(segunda parte)
Em9
D11/C
Em9
D11/C
Dream on brother, while you can
Em9

D11/C

Em9

D11/C

Dream on sister, I hope you find the one


Am7

D11/A

Am7

All of our lives


Am7

D11/A

Em9

D11/A

Am7

D11/A

Sands are flowing and the lines are in your hand


Em9

D11/C

In your eyes I see the hunger


Em9

D11/C

And the desperate cry that tears the night


(refro)
E5

C5
D5
G5 F5
Spend your days full of emptiness

E5

C5

D5

G5 F#5

Spend your years full of loneliness


E5

C5
D5
G5 D5
Wasting love, in a desperate caress

E5

C5

D5

C5

Rolling shadows of nights

E|--------------------------|
B|-----------------------3--|
G|-----0-----0-----------0--|(3x)
D|---4-----2-------------2--|
A|-5-----3--------2------0--|
E|--------------0-----------|

E|--------------------|
B|--------------------|
G|-----0-----0--------|
D|---4-----2----------|
A|-5-----3-------2----|
E|-------------0------|

(pr-solo)

D11/C

covered up quickly by the tides

Em9

of time

D11/C

E|--------------------------7p5--------------------|
B|--5~-7h8----10b12r10--7~-------8p7-8-7-5---5~----|
G|---------5~------------------------------7-------| (4x)
D|-------------------------------------------------|
A|-------------------------------------------------|
E|-------------------------------------------------|

E|-------------------------------------|
B|-/5~-7h8----10b13rb10--7~------------|
G|---------5~----------------5-5--7-7--|
D|---------------------------5-5--7-7--|
A|---------------------------3-3--5-5--|
E|-------------------------------------|

(interldio)
p.m.
E|----------------------------|
B|----------------------------|
G|-----------------------7~\--|(4x)
D|-----4---5/4-----4-5-4------|
A|---2---2-----2-3------------|
E|-0--------------------------|
. . . . ... . . . . .
(solo) E5 C5

A5 D5 B5 (4x)

E|----------------------------------------------------|
B|-15-------------------------------------------------|
G|-14b16r14--12----12~---12~\--7b9-7--5-4-5-4---------|
D|--------------14-------12~\-----------------7-5-7~--|
A|----------------------------------------------------|
E|----------------------------------------------------|

E|-----15----14----12--------------------------|
B|-/12----12----12----12-15-15b17-15-13-12~-\--|
G|---------------------------------------------|
D|---------------------------------------------|
A|---------------------------------------------|
E|---------------------------------------------|

E|-----12----14----15----14----15----17----17b19----|
B|-/12----12----12----12----12----12----12----------|
G|--------------------------------------------------|
D|--------------------------------------------------|
A|--------------------------------------------------|
E|--------------------------------------------------|

E|-17b19r17-15-14-15~--17b19r17-15-14------17b19b17-15-14-15-14------------------|
B|------------------------------------15~------------------------15-15b17-15~~~--|
G|-------------------------------------------------------------------------------|
D|-------------------------------------------------------------------------------|
A|-------------------------------------------------------------------------------|
E|-------------------------------------------------------------------------------|

E|----15-14-12----------------------------------|
B|-12----------15-13-12-------------------------|
G|----------------------14-12-14-12-11b12r11~---|
D|----------------------------------------------|
A|----------------------------------------------|
E|----------------------------------------------|

E|-----12----14----15----17--17b19~-17~---|
B|-/12----12----12----12------------------|
G|----------------------------------------|
D|----------------------------------------|
A|----------------------------------------|
E|----------------------------------------|

(refro 2x)
E5

C5

D5

G5 F5

Spend your days full of emptiness


E5

C5

D5

G5 F#5

Spend your years full of loneliness


E5

C5
D5
G5 D5
Wasting love, in a desperate caress

E5

C5
D5
Rolling shadows of nights
(G5

E5
E5

B5)

C5
D5
G5 F5
Spend your days full of emptiness
C5

D5

G5 F#5

Spend your years full of loneliness


E5

C5
D5
G5 D5
Wasting love, in a desperate caress

E5

C5
D5
Rolling shadows of nights

E|----------------------------------|
B|----------------------------3-----|
G|-----0-----0---------------0------|
D|---4-----2----------------2-------|
A|-5-----3----------2------0--------|
E|----------------0-----------------|

A5

Am7

B5

C5

D11/A

D11/C

D5

E5

Em9

F#5

F5

G5