Anda di halaman 1dari 3

Rasgueo:

Rasgueo bsico: Una haca abajo, pausa, dos haca arriba con el pulgar y pausa.
Nota: En el rasgueo antes del coro, el G' se alarga con un sube y baja
que dura ocho tiempos.
El G' es la segunda forma de poner el acorde de G:
|-3-|
|-3-|
|-4-|
|-5-|
|-5-|
|-3-|
Nota: No se les olvide que si est con capo en el traste 3
,es decir en Sol, realizan los mismo acordes como si estuviera en Mi.
Capo 3 'Intro'
e|-------------|-------------|-------------|-------------|
b|---1-------1-|---1-------1-|---1-------1-|---1-------1-|
g|---------0---|---------0---|---------0---|---------0---|
D|-----2h3-----|-----2h3-----|-----2h3-----|-----2h3-----|
A|-3-----------|-3-----------|-3-----------|-3-----------|
E|-------------|-------------|-------------|-------------|
Estrofa 1:
C
G
Am
G
No morir yo vivir mil aos.
F
G'
C
Ment, me enga, lo s.
e|-------------|-------------|
b|---1-------1-|---1-------1-|
g|---------0---|---------0---|
D|-----2h3-----|-----2h3-----|
A|-3-----------|-3-----------|
E|-------------|-------------|
Estrofa 2:
C
G
S, es la verdad
Am
G
t logrars la eternidad
F
G'
C
C7
En ti nacer la luz inmortal.
F
Fm
G'
Nunca ms sufrirs, renacers.
Coro:
Em
F
Inmensidad la luz es hoy.
Em
F

Eternidad nada se va.


Em
Resurreccin somos
F
G'
un Sol con Corazn.
Estrofa 3:
C
G
Am
G
Lo logrars t vivirs mil aos.
F
G'
C
Tendrs un alma sin fin.
e|-------------|-------------|
b|---1-------1-|---1-------1-|
g|---------0---|---------0---|
D|-----2h3-----|-----2h3-----|
A|-3-----------|-3-----------|
E|-------------|-------------|
Estrofa 4:
C
G
No, nunca podr
Am
G
ser inmortal Nunca podr!
F
G'
C C7
Jams yo ser la inmensidad.
F
Fm
G'
Sufrir, morir, me pudrir.
Coro:
Em
F
No es la verdad, la luz es hoy.
Em
F
Eternidad: nada se va.
Em
Resurreccin somos
F
G'
un Sol con Corazn.
Coro:
Em
F
Inmensidad la luz es hoy.
Em
F
Eternidad nada se va.
Em
Todo es amor, somos
F
G'
un Sol con Corazn.
C G Am G F G'
e|-------------|-------------|-------------|-0--|
b|---1-------1-|---1-------1-|---1-------1-|-1--|

g|---------0---|---------0---|---------0---|-0--|
D|-----2h3-----|-----2h3-----|-----2h3-----|-2--|
A|-3-----------|-3-----------|-3-----------|-3--|
E|-------------|-------------|-------------|-0--|
Nota: Terminan con un rasgueo descendente en el acorde de Do mayor(C).

By: Juan Mena