Anda di halaman 1dari 3

SHOW ME THE WAY Chords - Peter Frampton | E-Chords

1 van 3

http://www.e-chords.com/chords/peter-frampton/show-me-the-way

hide this tab


Intro: (D

D7+

Bm

Bb6

C9)

(3x)

e|------------------------------------------------|
B|------------------------------------10----------|
G|-----------6-7--------7-9b10-9-7-------7--9-----|
D|-7-----7-9-----9--------------------------------|
A|------------------------------------------------|
E|------------------------------------------------|
e|--------------------------------------|
B|--------------------------------------|
G|-----------6-7---------7-9b10-9-7---7-|
D|-7-----7-9-----9----------------------|
A|--------------------------------------|
E|--------------------------------------|

D
D7+
I wonder how you're feeling there's ringing in my ears.
Bm
Bb6
C9
And no one to relate to 'cept the sea.
D
D7+
Who can I believe in?
I'm kneeling on the floor.
Bm
Bb6
There has to be a force. Who do I phone?
A7/4
G
The stars are out and shining. But all I really want to know
Bm
G
Oh won't you show me the way, everyday
Bm
G
A7/4
I want you show me the way

D D7+ Bm Bb6 C9

D
D7+
Well, I can see no reason you living on your nerves
Bm
Bb6
C9
When someone drop a cup and I submerge
D
D7+
I'm swimming in a circle, I feel I'm going down.
Bm
Bb6
There has to be a fool to play my part
A7/4
G
Someone thought of healing. But all I really want to know
Bm
G
Oh won't you show me the way, everyday
Bm
G

15/01/2016 18:48

SHOW ME THE WAY Chords - Peter Frampton | E-Chords

2 van 3

http://www.e-chords.com/chords/peter-frampton/show-me-the-way
G

I want you show me the way, oh, oh, oh,


Bm
G
I want you day after day, he, he, hey
hide this tab
Solo: (D

D7+ Bm

Bb6 C9) (2x)

e|-----------------------------------------------------------------|
B|-----------7-10-8-10-7-------------------------------------------|
G|-----6-7-9-------------9-7---9-9b10r9p7-9--9-7-9-9b10-9-7---7--7-|
D|-7-9-------------------------------------------------------------|
A|-----------------------------------------------------------------|
E|-----------------------------------------------------------------|

D7+
I wonder if I'm dreaming, I feel so unashamed.
Bm
Bb6
I can't believe this is happening to me.
A7/4
G
I watch you when you're sleeping and then I want to take your love.
Bm
G
Oh won't you show me the way, everyday
Bm
G
I want you show me the way, (one more time )
Bm
G
I want you day after day, Hey
Bm
G
(D D7+ Bm G)
I want you day after day, Hey
Bm
G
Oh won't you show me the way, everyday
Bm
G
I want you show me the way, (night and day)
Bm
G
(D D7+
Bm
I want you day after day, he, hey, oh, oh,

Bb6

C9

D)

hide this tab


Solo final:

e|------------------------------10-7--------------------------|
B|-------------7-10-8-10----8-7------10-7-10-7----------------|
G|-----6-7---9---------------------------------9-7-9-9b10r9p7-|
D|-7-9--------------------------------------------------------|
A|------------------------------------------------------------|
E|------------------------------------------------------------|

e|-------------------------------------------------------------|
B|------------------7-10-8-7~-----------------------------10---|
G|-9p7---7-9~~-7-9------------9b10r9p7-9---7-9---9b10r9-7----7-|
D|-----9---------------------------------9---------------------|
A|-------------------------------------------------------------|
E|-------------------------------------------------------------|
e|-----------------7-7------------10--10-9-7-9--7-9-7---------|
B|--------------10-----10-10--8-7-----------------------10-7--|
G|---7-9b10r9-7-----------------------------------------------|
D|-9----------------------------------------------------------|
A|------------------------------------------------------------|
E|------------------------------------------------------------|

e|--------10------------------------------------------------------|
B|-10-8-7----8-7--------------------------------------------------|
G|---------------9-7--9b10r9p7-9-9p7----7-9-7-9--9b10r9p7-9-7-----|
D|-----------------------------------9------------------------9-7-|
A|----------------------------------------------------------------|
E|----------------------------------------------------------------|
e|-----------------------|----------|-------|
B|-----------------------|----------|-------|
G|---------------------7-|-9b10-9-7-|(4x)-7-|
D|-----------------7-9---|----------|-------|
A|-9-8-7-5---5-7/9-------|----------|-------|
E|---------7-------------|----------|-------|

D7+

Bm

Bb6

C9

A7/4

15/01/2016 18:48

SHOW ME THE WAY Chords - Peter Frampton | E-Chords

3 van 3

See also:

http://www.e-chords.com/chords/peter-frampton/show-me-the-way

Other versions:

Pink Floyd - Wish You Were Here

Emmerson Nogueira - Show Me The Way

Jimi Hendrix - Hey Joe

Peter Frampton - Show Me The Way

Jimi Hendrix - Little Wing

Ritchie Valens - La Bamba

The Mamas and Papas - California Dreaming


Creedence Clearwater Revival - Proud Mary

3 Comments

John Schlitt - Show Me The Way


Styx - Show Me The Way

The Cranberries - Show Me The Way


Billy Talent - Show Me The Way

Sort by Oldest

Add a comment...
Marc Legault
cool!

Like

Sep 28, 2012 8:42pm

Helena Chivers Oldfield Girls School, Bath


Found this easy to learn

Like Reply Sep 23, 2014 1:35pm

Freddy Ol Wingles
excellent j'adore !!

Like Reply Jun 22, 2015 10:04am


Facebook Comments Plugin

15/01/2016 18:48