Anda di halaman 1dari 4

Layla

_______________________
Derek & The Dominos
-------------------------------------|
-------------------------------------|
-------------------------------------|
-----0-3-0---0--7-5-3------5-------7-|
-0-3-------3----5-3-1--0---3--0-3--5-|
-------------------------3-----------|
Sweet Home Alabama
_______________________
Lynyryd Skynyryd
-----------------------------------------------|
-----3---------3-----------3-------------------|
-------2---------0-----------0-----------------|
-0-0--------------------------------0-2-0---0--|
---------3-0-3------------------0-2-------2----|
--------------------3-0-3----------------------|
Crazy Train
________________________
Ozzy Osbourne
-----------------|-------------------|
-----------------|-------------------|
-----------------|-------------------|
-----------------|-------------------|
-----4---5---4---|-2-0---0--2-0------|
-2-2---2---2---2-|----4--------4-0-2-|
Wish You Were Here
________________________
Pink Floyd
------------3-3--3-3--3-----------|
------------3-3--3-3--3-----------|
------------0-0--0-0--0-----------|
-------0-2---------------2-0------|
---0h2-----------------------2-0--|
-3--------------------------------|
Johny B. Goode
________________________
Chuck Berry
---------6/7-7-7-6/7-7-7-6/7-7-7---------------|
-----7-9-6/7-7-7-6/7-7-7-6/7-7-7--9-8-6--------|
-7h8------------------------------------6h7----|
--------------------------------------------8--|
-----------------------------------------------|
-----------------------------------------------|
Sweet Child O' Mine
_____________________________
Guns 'n Roses
-------------15----14-----|
----15--------------------|
-------14-12----14----14--|
-12-----------------------|
--------------------------|
--------------------------|
Stairway To Heaven
_________________________
Led Zeppelin
-------5-7------7-8-----8-2----2--0----0--------------|
-----5-----5--------5-------3-------1----1----0--1-1--|
---5-----4---5--4-5---5-5-----2------2-----2--0--2-2--|
-7------------------------0-------2-------------------|
----------------------------------------------2--0-0--|
------------------------------------------------------|
Sunshine Of Your Love
__________________________
Cream
----------------------------------|
----------------------------------|
----------------------------------|
-12-12-10-12----------------------|
-------------12--11--10-----8-----|
-------------------------10---10--|
Day Tripper
__________________________
Beatles
-------------------------|
-------------------------|
-------------------------|
----------2-0---4---0-2--|
--------2-----2---2------|
-0--3-4------------------|
Love Me Two Times
___________________________
The Doors
--------------------------------|
--------------------------------|
---------------------2~------2~-|
--------------------------------|
-0-3--0-5--0-3--0---------------|
------------------0-----[0]-----|
Wonderful Tonight
____________________________
Eric Clapton
-----5b[7]--5--3-5~-----5b[7]--5-3----|
-3-3----------------3-3------------5~-|
--------------------------------------|
--------------------------------------|
--------------------------------------|
--------------------------------------|
Smoke On the Water
_____________________________
Deep Purple
----------------------------------------|
----------------------------------------|
----------------------------------------|
----------------------------------------|
-5--8--10--5--8--11-10--5--8--10--8--5--|
-3--6--8---3--6--9--8---3--6--8---6--3--|
Walk This Way
______________________________
Aerosmith
-----------------------------------------------|
-----------------------------------------------|
-----------------------------------------------|
-------2-------2---------2-------2-------2--5~-|
-0-1-2---0-1-2-----0-1-2---0-1-2---0-1-2-------|
-----------------0-----------------------------|
-------------------------------------------------------------------------------
Just Some Small Riffs
-------------------------------------------------------------------------------
Tabbed by:ragnarokwarrior
Email:apollo04418@yahoo.com
Tuning:Standard

| ^ Bend (Note: "^^" Means to bend it twice)


| / Slide up
| \ Slide down
| h Hammer-on
| p Pull-off
| ~ Vibrato
| + Harmonic
| x Mute note
I'm not sure if these are scales, but have fun.
Play moderately fast for better sound.
e|---------------------------------------------------------------------------|
B|---------------------------------------------------------------------------|
G|-------------------------12--14--14^^--12----------------------------------|
D|-----------------12--14--------------------14------------------------------|
A|---------12--14------------------------------------------------------------|
E|-12--14--------------------------------------------------------------------|
e|---------------------------------------------------------------------------|
B|---------------------------------------------------------------------------|
G|-------------------------8--10--10^^--8------------------------------------|
D|-----------------8--10--------------------10-------------------------------|
A|---------8--10-------------------------------------------------------------|
E|-8--10---------------------------------------------------------------------|
Putting them both together sounds good too:
e|---------------------------------------------------------------------------|
B|---------------------------------------------------------------------------|
G|-------------------------------------8-10-12-14-14^^-12------10^^-8--------|
D|-------------------------8-10-12-14----------------------14----------10----|
A|-------------8-10-12-14----------------------------------------------------|
E|-8-10-12-14----------------------------------------------------------------|
Again, play fast:
e|-12--10------10------------10--8------8------------------------------------|
B|---------12------12--10^^---------10-----10--8^^---------------------------|
G|---------------------------------------------------------------------------|
D|---------------------------------------------------------------------------|
A|---------------------------------------------------------------------------|
E|---------------------------------------------------------------------------|
Just play the same pattern down the neck of the guitar.
This one can be done at a leisurely speed:
e|-------------------5^------------------------------------------------------|
B|-8--7--5--7--5-------------------------------------------------------------|
G|----------------7----------------------------------------------------------|
D|---------------------------------------------------------------------------|
A|---------------------------------------------------------------------------|
E|---------------------------------------------------------------------------|
This is the end of a blues song I once heard, but can't I remember its name.
e|---------------------------------------------------------------------------|
B|---------------------------------------------------------------------------|
G|--------------------------8\7--7-------------------------------------------|
D|--------------------------7\6--6-------------------------------------------|
A|------4-4--5-5--6-6--6-7--8\7--7-------------------------------------------|
E|-5-5-----------------------------------------------------------------------|
Something Cool:
Riff#1 Sustain this strum
e|-----------------------------------------/----------------------------------|
B|----------------------------------------/-----------------------------------|
G|---------------------------------------/------------------------------------|
D|---13--13--13--13--------11--11--11--11----/--15--15--15--15----------------|
A|--11--11--11--11--11----9---9---9---9---9--/-13--13--13--13--13-------------|
E|-12--12--12--12-------10--10--10--10-------/14--14--14--14------------------|
/
Repeat Twice then add Riff#2 Here/
Riff#2 Sustain this Strum
e|---------------/------------------------------------------------------------|
B|--------------/-------------------------------------------------------------|
G|-------------/--------------------------------------------------------------|
D|---9--9--9--9---------------------------------------------------------------|
A|--7--7--7--7--7-------------------------------------------------------------|
E|-8--8--8--8-----------------------------------------------------------------|
Phish - Axilla
E|------------------------------|------------------------|
B|------------------------------|------------------------|
G|----------6^------------------|----------6^------------|
D|------8------8---6-8-----6----|------8------8---6-8----|
A|----8---8------8-------8------|----8---8------8--------|
E|--6------------------9-----9--|--6------------------9^-|
E|-----6-6----6-6----6---------------|
B|-----6-6----6-6----6---------------|
G|--8^-----8^-----8^-----6--6--8--8--|
D|-----------------------6--6--8--8--|
A|-----------------------------------|
E|-----------------------------------|

Minat Terkait