Anda di halaman 1dari 1

Song: TNT

Artist: AC/DC
Album: high voltage
Tabbed by: Chris Gendron
this is 100% correct
intro verse
e/---|------------------------------------|
B/---|------------------------------------|
G/---|-----0--2----2----------------------|
D/-2-|--2--0--2----2----------------------|
A/-2-|--2-----0----0----------------------|
E/-0-|--0--3-----3----3-------------------|
.
chorus
e/------------------------------------------|
B/------------------------------------------|
G/--2---------------------------------------|
D/--2-----2---------------------------------|
A/--0-----2---------------------------------|
E/-----3b--0--------------------------------|
solo
e/-------3p2p0----------------------------|
B/-------------3p2p0----------------------|
G/-2b(4)-------------2p0-----0------------|
D/------------------------/5--------------|
A/----------------------------------------|
E/----------------------------------------|
e/-------12--------------------------------|
B/-15~~~----15-12-----12-------------------|
G/----------------14b----14-12----14-------|
D/-----------------------------14----14----|
A/-----------------------------------------|
E/-----------------------------------------|
e/---------------------------------12-----|
B/-----------------12-15-12-----12----12--|
G/-12~~~------14b-----------14b-----------|
D/----------------------------------------|
A/----------------------------------------|
E/----------------------------------------|
e/-------12-15-12----12-------------------|
B/--15~~----------15----15-12-------------|
G/----------------------------14-12----14-|
D/----------------------------------14----|
A/----------------------------------------|
E/----------------------------------------|
e/-----------------------17~~~~~~~~~------|
B/----------------------------------------|
G/----12----------------------------------|
D/-14------14p12-14~~---------------------|
A/----------------------------------------|
E/----------------------------------------|