Anda di halaman 1dari 2

Song- Higher

Album- Human Clay


Written By- Creed
Transcribed By- Eric DiRezze
Tuning- DADGBe

Intro
*I typed this as close as I could. Just listened to the song if you have
trouble following along with it.
e----------------------------------------------------------------------
B----------------------------------------------------------------------
G-------7--7--9--9-9/11--11-9-11--11-12--9-9-9-9-11--11p9p7-9--9-11--9-
D--0-0--0--0--0--0-0-----0--0-0---0--0---0-0-7-7-7---7------7--7-7---7-
A--0-0--0--0--0--0-0-----0--0-0---0--0---0-0-7-7-7---7------7--7-7---7-
D--0-0--0--0--0--0-0-----0--0-0---0--0---0-0-7-7-7---7------7--7-7---7-
| 1st Time
e-------------------------------|-----------------------------------|
B-------------------------------|-----------------------------------|
G--7-7--7-9--9-7--7-7-7--7--0-0-|-12-11--11--11-9--11--11-9-7--7--7-|
D--0-5--5-5--5-5--5-5-5--5--0-0-|-0--0---0---0--0--0---0--0-0--0--0-|
A--0-5--5-5--5-5--5-5-5--5--0-0-|-0--0---0---0--0--0---0--0-0--0--0-|
D--0-5--5-5--5-5--5-5-5--5--0-0-|-0--0---0---0--0--0---0--0-0--0--0-|

2nd Time
e---------------------------------------
B---------------------------------------
G---------------------------------------
D--5--0--0---0--5--0--0---0--4-5-4-2-0--
A--5--0--0---0--5--0--0---0--4-5-4-2-0--
D--5--0--0---0--5--0--0---0--4-5-4-2-0--

Strum | | Strum |
e-----5-----|---------------|-----0-----|--0-----0----
B-----3-----|---------------|-----0-----|----0-----0--
G-----2-----|------0--------|-----7-----|------7------
D-----0-----|---------------|-----5-----|-------------
A-----0-----|--4h5---4h5-5--|-----5-----|-------------
D-----0-----|------------5--|-----5-----|-------------

Pre Chorus
(# of strums not shown)
e---------------------------------------------
B-------------------------------/20-20-20-20--
G--7-7-7-7-7-7-7-7-7-7-7-7-7-7--/19-19-19-19--
D--4-4-4-4-5-5-5-5-4-4-4-4-5-5---0--0--0--0---
A--4-4-4-4-5-5-5-5-4-4-4-4-5-5----------------
D--4-4-4-4-5-5-5-5-4-4-4-4-5-5----------------

Chorus
e---------------------------------------------------------------------
B---------------------------------------------------------------------
G--x--x-x--x--x-x-x-x---x------------------6-7-9p7p6-7-------x--x-x-x-
D--7--7-7--7--7-7-7-7---7--5----4--0--0-0---------------0-0--7--7-7-7-
A--5--5-5--4--4-4-4-5p4-4--5--4-4--0--0-0---------------0-0--4--4-4-4-
D--------------------------5--4-4--0--0-0---------------0-0-----------
e---------------------------------
B---------------------------------
G--x----x-------------------------
D--7----7--5----4--0--0-0-4brbp0--
A--5p4--4--5--4-4--0--0-0---------
D----------5--4-4--0--0-0---------

Strum |Palm Mute| Strum |


e-----------------|---------|------------|-----------------------------
-------
B-----------------|---------|------------|-----------------------------
-------
G-----------9-----|---------|------
7-----|------------------------------------
D-----0-----7-----|---------|------5-----|-5--0--0---0--5--0--0---0--4-
5-4-2-0
A-----0-----7-----|--0--0---|------5-----|-5--0--0---0--5--0--0---0--4-
5-4-2-0
D-----0-----7-----|--0--0---|------5-----|-5--0--0---0--5--0--0---0--4-
5-4-2-0

At approx. 3:40
e-----------------------------
B-----------------------------
G------12-11-------12-11--/7--
D--0-0-x--x----0-0-x--x----x--
A--0-0-10-9----0-0-10-9---/5--
D--0-0---------0-0------------

Key
b = Bend
r = Release bend
h = Hammer
p = Pull off
/ = Slide