Anda di halaman 1dari 5

Shadows

viernes, 23 de febrero de 2007


20:30
#- ---------------------------------PLEASE NOTE--------------------------------#
#This file is the author's own work and represents their interpretation of the #
#song. You may only use this file for private study, scholarship, or research. #
#- ----------------------------------------------------------------------------#

Title: Parisienne walkways


Tabs are made by a computer program from the midi file melody track

--12- ------10- 8---7---5-3--|--1------12- 10- -------|--10- ------8--7---5----3----|


---------------------------|----------------------|-------------------------3--|
---------------------------|----------------------|----------------------------|
---------------------------|----------------------|----------------------------|
---------------------------|----------------------|----------------------------|
---------------------------|----------------------|----------------------------|

--0------10- --8--------|--8-------7-5---3---1-0----|--------8---7--------7-|
-----------------------|-------------------------3-|-----------------------|
-----------------------|---------------------------|-----------------------|
-----------------------|---------------------------|-----------------------|
-----------------------|---------------------------|-----------------------|
-----------------------|---------------------------|-----------------------|

----------5-4-------------|--------------------|---12- ------10- 8---7---5-3--|


-----------------6---5-3--|--------------------|----------------------------|
--------------------------|---5----------------|----------------------------|
--------------------------|--------------------|----------------------------|
--------------------------|--------------------|----------------------------|
--------------------------|--------------------|----------------------------|

---1-----12- ---10- -------|---10- ------8-7---5---3----|---0------10- -8---------|


-------------------------|------------------------3--|------------------------|
-------------------------|---------------------------|------------------------|
-------------------------|---------------------------|------------------------|
-------------------------|---------------------------|------------------------|
-------------------------|---------------------------|------------------------|

---8-------7-5---3---1-0--|---------8---7-------------|--------------------|
--------------------------|--3------------------9--10- |--------------------|
--------------------------|---------------------------|--------------------|
--------------------------|---------------------------|--------------------|
--------------------------|---------------------------|--------------------|
--------------------------|---------------------------|--------------------|
-------9---10- -12- ---15- ----|---15- ------13- -13- -------|
----------------------------|--------------------------|
----------------------------|--------------------------|
----------------------------|--------------------------|
----------------------------|--------------------------|
----------------------------|--------------------------|

---------------10- -----13- ---|--13- ------12- 12- -------|


--------12- 13- ---------------|------------------------|
-----------------------------|------------------------|
-----------------------------|------------------------|
-----------------------------|------------------------|
-----------------------------|------------------------|

----------------------12- --12- |---------10- 10- --------|


-------10- 12- -13- -------------|-----------------------|
------------------------------|-----------------------|
------------------------------|-----------------------|
------------------------------|-----------------------|
------------------------------|-----------------------|

----------------7------10- ---|---10- -----8--7--8-7-5--------3---8-5-12- |


----------9-10- --------------|------------------------4-3-1------------|
-----------------------------|-----------------------------------------|
-----------------------------|-----------------------------------------|
-----------------------------|-----------------------------------------|
-----------------------------|-----------------------------------------|

----15- -17- -19- ---------------------------------------|


------------------20- ----------------17- -16- 15- 13- 15- -|
----------------------21- 19- 17- --18- ------------------|
------------------------------------------------------|
------------------------------------------------------|
------------------------------------------------------|

---------------------------------|---------------------7---------|
--15- 13- ------------13- 12- -10- 10- |-------------8---10- ----8------|
--------14- ----------------------|-----------9--------------9--9-|
---------------------------------|-------------------------------|
---------------------------------|-------------------------------|
---------------------------------|-------------------------------|

-----7------8-10- 10- -10- -8---------|------------------5---5---------|


---8--------8-10- 10- -10- -8-10- 8--8-|----------------5-------------6-|
---------------------------9--9--9-|--------------5-----------------|
-----------------------------------|------------7-------------------|
-----------------------------------|---------10- --------------------|
-----------------------------------|--------------------------------|

-------0-0--0--------------|----2--5---9-----5----------|
---5-3-------------------4-|-------------------7--------|
---------------------------|----------------------------|
---------------------------|----------------------------|
---------------------------|----------------------------|
---------------------------|----------------------------|

---4-7--12- -------8---13- -----|--12- ---12- -------10- 8--7-|


--------12- ----10- ----13- -----|--12- ---------------------|
------------------------------|--13- ---------------------|
------------------------------|--------------------------|
------------------------------|--------------------------|
------------------------------|--------------------------|

---5--3--1-------12- --10- -------|------10- --8-7---5--3----|


--------------------------------|----------------------3--|
--------------------------------|-------------------------|
--------------------------------|-------------------------|
--------------------------------|-------------------------|
--------------------------------|-------------------------|

--0------10- --8--------|------8----5---3--1---|---------8---7----------|
-----------------------|----------------------|--3-----------------9---|
-----------------------|----------------------|------------------------|
-----------------------|----------------------|------------------------|
-----------------------|----------------------|------------------------|
-----------------------|----------------------|------------------------|

--------------------|-------------------7---|--5------------12- ---|
--10- ---------------|--------------8-10- --8-|---------------------|
--------------------|-----------------------|---------------------|
--------------------|-----------------------|---------------------|
--------------------|-----------------------|---------------------|
--------------------|-----------------------|---------------------|

--8-------------------7-----|-------------12- -15- 17- -----|


----10- ----------8-10- --8---|------------------------17- -|
--------------------------9-|----------------------------|
----------------------------|----------------------------|
----------------------------|----------------------------|
----------------------------|----------------------------|

-------------------12- -15- -19- --17- |-------------15- ---------|


--------------15- ------------------|-----------------15- -15- -|
---14- -----------------------------|-------------------------|
-----------------------------------|-------------------------|
-----------------------------------|-------------------------|
-----------------------------------|-------------------------|

---------------------------------------------|-----------------------0--0--0-3-|
----------------------------------------0----|--------------0-1---3------------|
---14- ---14- 12- ----------------------------0-|---2--------2--------------------|
----------------12- -10- --------------9--10- --|---------------------------------|
------------------------12- ----10- 12- --------|---------------------------------|
---------------------------------------------|---------------------------------|

-----5--7-8-10- -12- 12- --12- 15- --17- -20- -20- -20- 22- -22- ---|
---------------------------------------------------------|
---------------------------------------------------------|
---------------------------------------------------------|
---------------------------------------------------------|
---------------------------------------------------------|

---22- --------------------------------------|
----------------20- 18- ----17- 15- -----15- ----|
---------21- ----------------------17- ---17- -|
--------------------------------------------|
--------------------------------------------|
--------------------------------------------|

------------------12- 12- --12- 15- --17- -20- -20- -20- 22- -20- --|
-----------13- 15- -----------------------------------------|
----14- -16- -----------------------------------------------|
----------------------------------------------------------|
----------------------------------------------------------|
----------------------------------------------------------|

---------------------------------------|---||
---22- ---------------------------------|---||
---------21- ------19- ----21- 19- --17- 19- |---||
---------------22- ---------------------|---||
---------------------------------------|---||
---------------------------------------|---||
Chords

Am Am Am

Am Dm G C F Dm E Am

Am Am Am

Am Dm G C F Dm/E A D A

Dm G C F Dm E Am A stop

Dm G C F Dm B7 E_F_E

Dm G C F Dm/E

Am Dm Am Dm Em Am

Am Dm Am Dm Em Am . . . . . . .

Pegado de <http://users.telenet.be/mathieu.laats/tabsandchords/parisiennewalkways.txt>

Minat Terkait