Anda di halaman 1dari 186

Home

Products

Photography

Guitar

Travel Blog

Resources

Sitemap

Guitar

Browse this page for some free guitar tabs , free guitar chords and links to many of the free g

Contents

1.

1 Wish list of mine


1.

1.1 Intihan ho gayi

2.

1.2 Pehla Nasha, Jo Jeeta Wohi Sikandar

3.

1.3 Pukaarataa Chalaa Huun Main

4.

1.4 Hero tune

5.

1.5 Jana Gana Mana

6.

1.6 Jab Koi Baat Bigar Jaey

7.

1.7 kisiikii MuskuraahaTo Pe Ho Nissar

8.

1.8 Neele Neele Ambar par

9.

1.9 I want it that way - Backstreet Boys

10. 1.10 Ho gayi hai mohabbat chords


11. 1.11 Nothing else matters
12. 1.12 Bailamos
13. 1.13 Be with you
14. 1.14 Hero by Enrique Iglesias
15. 1.15 Saagar Jaisi Aankhon Waali
16. 1.16 Bulla Ki Jaana Main Koun
17. 1.17 Kabhi Kabhi Aditi Zindagi
18. 1.18 SWEET CHILD O' MINE
19. 1.19 Another Day in Paradise
20. 1.20 As Long As You Love Me
21. 1.21 All Chords
22. 1.22 Title: Aap jaisa koi
23. 1.23 Socha Hai : Rock on
24. 1.24 Rock On - Pichle Saat Dino Mein Original Chords:
25. 1.25 Tum Ho Toh - Rock On, Original Tabs And Chords.., Check Em OUt..!
26. 1.26 Dheere Dheere se mere ashiqui
27. 1.27 Allah ke bande - Transcribed by Rahul Raj Singh
28. 1.28 Enrique Inglesia Dont You Forget About Me
29. 1.29 Somebody s Me
30. 1.30 Dire Straits - Sultans of Swing
31. 1.31 Cranberries - Animal Instinct tab
32. 1.32 Kishore Kumar
33. 1.33 More Than Words
34. 1.34 GreenDay : Boulevard of Broken Dreams
35. 1.35 Resources
36. 1.36 Ehsaas Atif Aslam
37. 1.37 Strumming patterns
38. 1.38 Video lessons by Pawan
39. 1.39 Hallelujah
40. 1.40 Tum Ho To
41. 1.41 Kholo Kholo
42. 1.42 Hum jo chakne lage
43. 1.43 Cancion Del Mariachi - Los Lobos

44. 1.44

(Desperado - El Mariachi)

45. 1.45 artist: euphoria


46. 1.46 Yeh Hawa Aryans
47. 1.47 Ghajini Tu meri adhuri
48. 1.48 Dil Ko
49. 1.49 Rock On
50. 1.50 Pichle Saat din
51. 1.51 Kuch Khaas Hai Fashion
52. 1.52 Do Dil Mil Rahe Hain ( Pardes )
53. 1.53 So gaya Yeh Jahan
54. 1.54 Mustafa Mustafa
55. 1.55 Quit Playing games with my Heart BSB
56. 1.56 Lemon Tree Fools Garden

TAB BOOK
Table of Contents

Wish list of mine. 4


Intihan ho gayi 5
Pehla Nasha, Jo Jeeta Wohi Sikandar 9
Pukaarataa Chalaa Huun Main. 12
Hero tune. 15
Jana Gana Mana. 16
Jab Koi Baat Bigar Jaey. 17
kisiikii MuskuraahaTo Pe Ho Nissar 18
Neele Neele Ambar par 20

I want it that way - Backstreet Boys. 25


Ho gayi hai mohabbat chords. 29
Nothing else matters. 32
Bailamos. 41
Be with you. 46
Hero by Enrique Iglesias. 47
Saagar Jaisi Aankhon Waali 50
Bulla Ki Jaana Main Koun. 54
Kabhi Kabhi Aditi Zindagi 56
SWEET CHILD O' MINE.. 57
Another Day in Paradise. 86
As Long As You Love Me. 87
All Chords. 90
Title: Aap jaisa koi 113
Socha Hai : Rock on. 114
Rock On - Pichle Saat Dino Mein Original Chords: 117
Tum Ho Toh - Rock On, Original Tabs And Chords.., Check Em OUt..! 120
Dheere Dheere se mere ashiqui 122
Allah ke bande - Transcribed by Rahul Raj Singh. 125
Enrique Inglesia Dont You Forget About Me. 126
Somebody s Me. 128
Dire Straits - Sultans of Swing. 130

Cranberries - Animal Instinct tab. 149


Kishore Kumar 151
O Mere Dil Ke Chain. 151
Pyar Deewana Hota Hai 152
Aaj unse pahali mulaqaat hogi 153
dead or alive. 164
More Than Words. 168
GreenDay : Boulevard of Broken Dreams. 171
Resources. 173
Ehsaas Atif Aslam.. 174
Strumming patterns. 176
Video lessons by Pawan. 178
Pukarta chala hoon main. 179
Time of your Life - Green Day. 179
Hallelujah. 182
Fur Elise. 189
Tum Ho To. 196
Kholo Kholo. 197
Hum jo chakne lage. 199
Cancion Del Mariachi - Los Lobos. 200
(Desperado - El Mariachi) 200
Anisutide. 202

artist: euphoria. 203


Yeh Hawa Aryans. 205
Ghajini Tu meri adhuri 206
Dil Ko. 207
Rock On. 210
Pichle Saat din. 213
Kuch Khaas Hai Fashion. 216
Do Dil Mil Rahe Hain ( Pardes ) 218
So gaya Yeh Jahan. 219
Mustafa Mustafa. 221
Quit Playing games with my Heart BSB.. 222
Lemon Tree Fools Garden. 224

Wish list of mine

English

1. I want it that way


2. As long as you love me
3. another day in paradise
4. nothing else matters
5. layla

6. hotel California
7. bailamos
8. quite playing games with me
9. tearing us apart

Hindi

1. Pukaarta Chala hun main


2. Kishore Songs
3. Chura liya hai tumne
4. Dil kya kare
5. Neele Nelle ambar par
6. Chehra hai ya chand khila hai
7. Pehla Nasha
8. Bulla Ki jaana mai koun
9. Allah ke bande hasde
10. Kisiki muskurahoten pe ho nisar
11. Aap jaisa koi

Kannada
1. Baare bare
2. anisutide yaako indu

3.
4.
5.

Intihan ho gayi

Here's the song


==============

First play the Em chord barred on the seventh fret (779987). Then play the following

-7-7s12-12-12-12--10-12-12s15-15-12-15-15p12-10-10h12-12p10-10s8-7--7-10-10s
5-5h7-7s10-10-10s12-12-12p10-10s7-7-5-5h7------- (E string)

------------------------------------------------------------------------------------------------------------------------5-5- (B string)

(as in, the whole intro is played on the first string, and the last two notes are played o
... or one can play the open first string as well ... cannot get the formatting right )

Then Kishore sings the 'La la laooooooooo' part, the chords of which are Em D C Bm

[Em]Inteha ho gayi [D], intezar ki [Em],


[Em]Aaina kuch khabar [D], mere yaar ki [Em],
[Am]Yeh humein hai yakeen,[D] bewafa woh nahi [F#]
[F#]Phir wajah kya hui[b], intezar ki [Em].

Then, the music plays to which the ffg. chords can be played:
Em G F# Am Em
Em D C B
Am D G B Em

[Em] Baat jo hai usmein, baat [C] woh nahin yahan kahin [D] kisi mein,
[D]Woh hai meri bas hai meri, [Bm] shor hai yahin gali gali mein [Em],

[Em] Saath saath woh hai mere [C] gham mein, mere dil ki har [D] khushi mein,
[D] Zindagi mein woh nahi to [Bm] kuch nahi hai meri zindagi mein [Em].
[Em] Bujh na jaaye [D], ye shama [C], aetbaar ki [Em],

Inteha ho gayi repeats ...


Then, Asha steps in to lend some wackiness...
[Em]Ooooo mere sajna [F#], lo [A] main aa gayi [Em]

Then, the song goes totally crazy

Oooo mere sajna, lo main aa gayi

[Em] Logon ne toh diye honge [F#] bade bade nazrane, [A] layi hu mai tere liye [Em
[Em] Dil yehi maange dua [F#] hum kabhi ho na judaa, [A] tera hai yeh tera rahe [Em
[C] Yeh meri zindagi[D] hai teri [Em]
[C] Yeh meri zindagi[D] hai teri [Em]

Tu mera sapna, main tujhe paa gayi


Oooo mere sajna, lo main aa gayi

Gham ke andherey dhaley, Bujhey huey sitaare jale, dekha jo tujhe toh dil mein jaan
Hothon pe taraane jage, armaan deewane jage, baahon mein aake tu aise sharmaaye
Chaa gayi phir wahi bekhudi
Chaa gayi phir wahi bekhudi
(Same as Logon ne toh ...)
La la la la la la
Then, the song goes into the sharabi mould again
--------------

, with the same chords as the mu

About the strumming pattern for the song (apart from the crazy part), this is what wo

| Da _ _ | Db _Ub | Db _Ub | Db _ _ | (in the second and third bars, _Ub is played in o

The above pattern can be explained with the help of this key:
D=down stroke,U=up stroke, a=4th,5th and 6th strings i.e. the thick strings, b=1st,2n
strings

So Da means a down stroke on the thick strings, Db = down stroke on thin strings, U

The above pattern is a lil confusing as I don't know how to write it without using the
part of the keyboard
but it's basically important to get the timing right ... play alon
enough ...

Chaand Mera Dil


Chaand Mera Dil
movie : Hum Kisi Se Kam Nahin
From :: He Haa :: (hehaaj@yahoo.com)
INTRO....
E -----------0------------------------------------B -------------1----------------------------------G ------0-2------0--0-----------------------------D --0-2---------------2-0-------------------------A ------------------------3-0---------------------E ------------------------------------------------

E ---------------0-------------------------------B -------0--1-3------3-----------0---3----1------G ---2---------------------0--2------------------D -----------------------------------------------Chaand mera dil Chaandni ho tum

E ---------------------------------------------B ---1---0-----0-1--------------------0--------G ----------2------------------0--2--------2---D ------------------3-------3------------------A ---------------------------------------------Chaand se hai door chaandni kahaan

E -----------0----------------------------------------------

B ----0--1--3--3-----------0--3---1----1----0-----0-1------G -2---------------0---2-----------------------2-----------D ----------------------------------------------------3-----3


A ---------------------------------------------------------Laut ke aana hai yahin tumko jaa rahe ho tum

E ------------------------------------------------------------B --------------0---------------------------------------------G -------0---2------2-----------------------------------------D ---3--------------------------------------------------------A ------------------------------------------------------------Jaaao meri jaan..

E -----------------------------------------------B -----------------------------------------------G ---0--0--0--2-- 2--2---------------2----2---2--D --------------------------3--3--3--------------A -----------------------------------------------E -----------------------------------------------Waise to har kadam milenge log sanam
E -----------------------------------------------------B ----0-1---1--1--3-----1------------------------------G --2----------------------2----2---0---0-----0-2--0---D ----------------------------------------------------3A -----------------------------------------------------Milega sachchaa pyaar mushkil se... ho O O

Dil ki dosti khel nahin koi


Dil se dil hai milta yaar mushkil se

E -----------------------------------------------------B ----------0---0--0----1--0--1--0--1-0----------------G --0--0-0------------------------------2--------------D -----------------------------------------------------yahi to hai sanam pyaar ka thikana..

E -----------------------------------------------------B -----------------------------------------------------G ---0----0----1----1------2----2----------------------D -----------------------------------------------------main hoon main hoon main hooon....

Pehla Nasha, Jo Jeeta Wohi Sikandar


Guitar 2 Comments

Pehla Nasha is one of the most memorable song of the yesteryear. It rhymes o
on the guitar. Jo Jeet Wohi Sikandar is one of my favorite old movies. The sta
excellent. Its actually on piano but feels equally good on guitar as well! I belie
be able to play the tabs of this song than the chords. So enjoy and share your v
Intro Interlude
[e|
[B|
[G|
[D|
[A|
[E|

G
Dm
|---5-5---8-8-----|----8-----8-8----|0-1-1-3-5-3-1-3p1|----1---1-----|-----------------|----8--8---------|1----------------|----3-3---3---|-----------------|----0------------|2----------------|----2---------|-----------------|-----------------|3----------------|----0---------|-----------------|-----------------|3----------------|--------------|-----------------|-----------------|0----------------|---------------

[e|
[B|
[G|
[D|
[A|
[E|

C
|0-1-1-3-5-3-1-3p1|----1---1--------|---0-1-1-0h2p0---|
|1----------------|----3-3---3------|---1-------------|
|2----------------|----2------------|---0-------------|
|3----------------|----0------------|---2-------------|
|3----------------|-----------------|---3-------------|
|0----------------|-----------------|-----------------|

[e|
[B|
[G|
[D|

|-----------------------------------|---5-------6-5-------5----------|-----------------------------------|-----8-6-------8-6-8---8p6-6----|-------------5-----5---------------|-5-------5----------------------|-5-5-7-8-7-5---5-7---7p5-----------|---------------------------------

[A| |-------------------------8-8-------|--------------------------------[E| |-----------------------------------|--------------------------------[e|


[B|
[G|
[D|
[A|
[E|

Chahe tum kuch na kaho...


Maine sun liya...
|----5----------------------------|--5-6-5---------------------|
|------8-8p6-6-5-5h6-8------------|--------8-6-6h8p6-----------|
|----------------------7----------|----------------------------|
|---------------------------------|----------------------------|
|---------------------------------|----------------------------|
|---------------------------------|----------------------------|

[e|
[B|
[G|
[D|
[A|
[E|

ke saathi pyaar ka... mujhe chun liya.. chun liyaa.. maine sun liyaa
|-5-5h8---8-8-----------5h6-5-----------------5----------5-----5-----|-------6-----8---------------8-6-6h8p6---6h8---8------8---6h8---8---|--------------------------------------------------------------------|--------------------------------------------------------------------|--------------------------------------------------------------------|---------------------------------------------------------------------

Music
[e|
[B|
[G|
[D|
[A|
[E|

|----------8----------------8------------------5----------|------5---|6-6-6-5-6---6-5--6-6-6-5-6---6-5----------5-6---6-6-8-8-8|--6-8---8-6
|----------------------------------7-7-7-7----------------|5---------|---------------------------------------------------------|----------|---------------------------------------------------------|----------|---------------------------------------------------------|-----------

Repeat Music again till you reach the final bar then
|-------------|
play
|-8-5--------this -> |------------|-------------|
|-------------|
|-------------|

Mukhda
[e|
[B|
[G|
[D|
[A|
[E|

Pehla nasha pehla khuma... naya pyaar hai naya intezaar...


|-------------------------------------------------------------------|
|----------------------5--------------------------------------------|
|------5-5h7---------5------------5-5h7-----------------------------|
|--7-7---------7---5----------7-7----------8h7-8-7-8-7--------------|
|----------------8--------------------------------------------------|
|-------------------------------------------------------------------|

kar lu main kya apna haal aye dile bekaraar.. mere dile bekaraar tu hi b
[e| |--------------------------------------------------------------------[B| |---------------------------------------------------------------------

[G|
[D|
[A|
[E|

|--------------------------------------------------------------------|-------------8-7-7-----------------7-5-5--------------8-7-7---5-7---5
|-8p7-7p5-7-8-----------8p7-7p5-7-8----------8p7-5-7-8-------8-----8-|---------------------------------------------------------------------

Interlude
[e|
[B|
[G|
[D|
[A|
[E|

|--------------------------------------------------------------------|--------------------------------------------------------------------|---7-------------5---5-5h7p5---------------7-------------5--5-5-----|-7---7-5-7-7-7-8---8-----------------7-8-7---7-5-7-7-7-8---8----5---|-------------------------------5-7-8--------------------------------|-----------------------------7---------------------------------------

[e|
[B|
[G|
[D|
[A|
[E|

|-8-6---------5-6-5-5-5-----------------------------------6-5--------|-----8-5---------------8-6-5---5-----------5-6-5-6-6h8p6------------|---------7p5-----------------7---7-5-7-7-7--------------------------|--------------------------------------------------------------------|--------------------------------------------------------------------|---------------------------------------------------------------------

Antra
[e|
[B|
[G|
[D|
[A|
[E|

udta hi firu in hawaaon me kahi.. ya main jhool jau in ghatao me kah


|--------------------------------------------------------------------|-6p5h6------------------------------6p5h6-------6-------------------|-------5-7h8-5h7-7-5-----7-5-5------------5 7h8---7-7-5-----7-5-5---|---------------------8-6--------------------------------8-6---------|--------------------------------------------------------------------|---------------------------------------------------------------------

Small Interlude
[e|
[B|
[G|
[D|
[A|
[E|

|-----------------------|
|------------6---7---6--|
|--5-7-8-7-8---8---5----|
|-----------------------|
|-----------------------|
|-----------------------|

Antra Contd
Play first line of Antra again...
[e|
[B|
[G|
[D|

ek kar du aasmaa aur zameen... kaho yaaron kya karun ya nahi...


|--------------------------------------------------------------------|-------------------------------------------6------------------------|------5---5-7-8-7-5-5---5--------5---5-7-8-------5-----5------------|--------8-------------8------------8---------8-8---8-8---------------

[A| |--------------------------------------------------------------------[E| |---------------------------------------------------------------------

Film - Mere Sanam

Pukaarataa Chalaa Huun Main


Singers - Rafi
Music - O.P. Nayyar
Lyricists - Majrooh
-------------------------------------------------------------------------------This song has a very rhythmic and melodious tune. Try to
listen to the song carefully to get the actual picking.
It seems to be in C#m scale(c# d# e f# g# a b ).
-------------------------------------------------------------------------------Play this portion two times.......

E|--4---4---0---------0---0-4---4--2------2---2--5--------|
B|-------------2---2--------------------4-----------------|
G|--------------------------------------------------------|
D|--------------------------------------------------------|
g# g# e c# c# e e g# g# f# d# f# f# a

E|--5--9--11-12--12-11--11-7---11-9---9-5--7--4-4-4-4-4---|
B|--------------------------------------------------------|
G|--------------------------------------------------------|
D|--------------------------------------------------------|
a c# c# e e d# d# b d# c# c# a b g#g#g#g#
--------------------------------------------------------------------------------

E|------12--11-12---------9---11--9--7--------------------|
B|--9-----------------------------------------------------|
G|--------------------------------------------------------|
D|--------------------------------------------------------|
g# e d# e ,

c# d# c# b ,

E|---7---9--11--14----------7-----------------------------|
B|--------------------9--10---9---------------------------|
G|--------------------------------------------------------|
D|--------------------------------------------------------|
b c# d# f# , g# a b g#

E|--11-9---7-5---4--5---4--5---0-----0-4---2--4--2--2-----|
B|-------------------------------2------------------------|

G|--------------------------------------------------------|
D|--------------------------------------------------------|
d# c# b a g# a g# a e c# e g# f# g# f# g#

E|--11-9---7-5---4--5---4--5---0-----0-4---2--4--2--2-----|
B|-------------------------------2------------------------|
G|--------------------------------------------------------|
D|--------------------------------------------------------|
d# c# b a g# a g# a e c# e g# f# g# f# g#

E|--4--2------2----4-2------0---2-0-----------------------|
B|---------4-------------4-----------4--2-2-2-2-2---------|
G|--------------------------------------------------------|
D|--------------------------------------------------------|
g# f# d# f# g# f# d# e f# e d# c#c#c#c#c#
--------------------------------------------------------------------------------

E|-----4--2--4---------4----2----0------------------------|
B|--2--------------4--------------------------------------|
G|--------------------------------------------------------|
D|--------------------------------------------------------|

c# g# f# g#

d# g# f# e

pukaarataa

chalaa hun main

E|--0---7--5--7---4--7--0---------------------------------|
B|--------------------------9-----------------------------|
G|--------------------------------------------------------|
D|--------------------------------------------------------|
e b a b g# b e

g#

galii galii bahaaar kii

E|------12-11-12----9---11-11--7--------------------------|
B|--9-----------------------------------------------------|
G|--------------------------------------------------------|
D|--------------------------------------------------------|
g# e d# e c# d# d# b
bas ek chhaaon zulf kii

E|--7---9---11--9-----------------------------------------|
B|------------------9---9---7--5--------------------------|
G|--------------------------------------------------------|
D|--------------------------------------------------------|
b c# d# c# g# g# f# e

bas ik nigaah

pyaar kii

E|--7--5-4--2-------0-2---0-------------------------------|
B|---------------4------------2---------------------------|
G|--------------------------------------------------------|
D|--------------------------------------------------------|
b a g# f# d# e f# e c#
pukaarataa chalaa hun main
--------------------------------------------------------------------------------

E|-----2--------------------2----------0--0---------------|
B|--4-----4--0----0--0---4-----4--5--4--4-----------------|
G|--------------3--3--------------------------------------|
D|--------------------------------------------------------|
d# f# d# b a#ba#b d# f# d# e d#ed#e

E|-----4--9--8----7--7----9--14-11-12--11-12-11-12--------|
B|---2----------9--9--------------------------------------|
G|--------------------------------------------------------|
D|--------------------------------------------------------|
c# g# c# b g#bg#b

c# f# d# e d# e d# e

E|---9--11-12-11-7-------7-9--11--9--7--------------------|
B|--------------------------------------------------------|
G|--------------------------------------------------------|
D|--------------------------------------------------------|
c# d# e d# b

b c# d# c# b

E|--6-7-9--7-4--5-7-5-2--4--5-4--2------------------------|
B|----------------------------------2---------------------|
G|--------------------------------------------------------|
D|--------------------------------------------------------|
a b c# b g# a b a f# g# a g# f# d#
--------------------------------------------------------------------------------

E|-9--14-12-9-----9---9---9-9-----9--7-7--9---------------|
B|--------------------------------------------------------|
G|--------------------------------------------------------|
D|--------------------------------------------------------|
c# f# e c#

c# c# c#c#

c# b b c#

ye dillagii

ye shokhiyaan salaam kii

E|-----9-------9------9------9---9---12-11--11------------|
B|--9------9------9-------9-------------------------------|

G|--------------------------------------------------------|
D|--------------------------------------------------------|
g# c# g# c# g# c# g# c# c# e d# d#
yahee to baat ho rahii hai kaam kii

E|-9--12--11--9--7--7--5--7-5-7---5--7-9------------------|
B|----------------------------------------9---------------|
G|--------------------------------------------------------|
D|--------------------------------------------------------|
c# e d# c# b b a b a b a b c# g#
koi

to mur ke dekh legaa is taraf

E|-9--11--9--7--7--7---7---------11-11--9-----------------|
B|-------------------------9-9----------------------------|
G|--------------------------------------------------------|
D|--------------------------------------------------------|
c# d# c# b b b b g#g# d# d# c#
koi

nazar to hogee mere naam kii

--------------------------------------------------------------------------------

pukaarataa chalaa huun main

sunii merii sadaa to kis yaqiin se


ghataa utar ke aa gayii zamiin pe
rahii yahii lagan to ai dil-e-javaan
asar bhii ho rahegaa ik hasiin pe
pukaarataa chalaa huun main

Hero tune

E|------10-12-10-12-10----------------------------------|
B|---8-----------------11--8--11-----------10--8--------|
G|------------------------------------------------------|
G d e d e d a# g a#

a g

E|-----------9-10-12---12-15-15--13-13-10-9--8----------|
B|-11-11-10------------------------------------11-------|
G|------------------------------------------------------|

a# a# a, c# d e, e g g, f e d c# c a#

Jana Gana Mana


--------------------------------------------------------------------------------

E|--------0--0--0--0--0--0-0-0-0-----0--1------------|
B|--1--3---------------------------3-----------------|
c d e e e e e eeee de f
Jana gana mana adhinayaka, jaya he

E|---0--0--0-----------------------------------------|
B|-------------3---3---3-0-3-1-----------------------|
e e e d d dbdc
Bharata bhagya vidhata

E|-------3-3---3---3----3-3-3-3----3-3/5-1----------|
B|---1-1---------------------------------------------|
ccgg g g gggg
Punjab

g g/a f

Sindhu Gujarata Maratha

E|---1-1-1-----1-1-0---------1-0---------------------|
B|-------------------3-----3-------------------------|
fff

ffed

Dravida

dfe

Utkala

Banga

E|----0----0------0-0-------0-3-3-5---1-1------------|
B|--------------3-----3------------------------------|
e e deed

egga ff

Vindhya Himachala Yamuna Ganga

E|---0--0--0----0--0---------------------------------|
B|--------------------3----3-0-3-1-------------------|
e e e

e e d

dbdc

Uchchala Jaladhi

taranga

E|---------0--0-----0-0------1-----------------------|
B|--1-3--------------------3-------------------------|
cd

e e

ee df

Tava shubha name jage

E|--0-1---3--3----3-1-0------1-0---------------------|

B|-------------------------3-------------------------|
ef g g

gfe dfe

Tava shubha ashish maange

E|--1-0--0-0-----------------------------------------|
B|-------------3-3---0-3-1---------------------------|
fe ee dd bdc
Gahe tava jaya gatha

E|--------3--3--3--3-------3-3--3-3-3--5-------------|
B|--1-1------------------5---------------------------|
cc g g g g

egg ggg a

Jana gana mangala dayaka jaya he

E|---1-1-1----1-1-----0---1-0------------------------|
B|----------------------3----------------------------|
fff ff

edfe

Bharata bhagya vidhata

E|---------8---7-5--7----5-3-5-----------------------|
B|----5-8--------------------------------------------|
eg c ba b

aga

Jaya he, jaya he, jaya he

E|----------------0-0------0-1-----------------------|
B|------1-1--3-3---------3---------------------------|
cc dd ee def
Jaya jaya jaya, jaya he

--------------------------------------------------------------------------------

Jab Koi Baat Bigar Jaey


Film

Pata Nahi Yaar :P

Tabbed By : Ali Rana

Comments : I wasnt in a mood of tabbing the whole song... if someone wants to complete i
cagedinsanity@hotmail.com. Thanx.

E-------------------------------------------------------------------------------------------------------------

B--------------1-----------------1-------------------------1------------------------------------------------

G----3----1-----------3-3--1----------------3---1---3--------3---1---------------------------------------

D------------------------------------------------------------------------3-----------------------------------

A-------------------------------------------------------------------------------------------------------------

E------------------------------------------------------------------------------------------------------------Jab Koi Baat

Bigar Jaey Aae

Jab Koi Mushkill Par Jaey Aaey

E-------------------------------------------------------------------------------------------------------------

B------------------------1-----------------------------------------------------------------------------------

G-----------1-----3----------3------1-------------------------------------1---------1----------------------

D-----3-----------------------------------3------1-------------1-----3----------3--------------------------

A-------------------------------------------------------------------------------------------------------------

E------------------------------------------------------------------------------------------------------------Tum

Dena

Saath

Mera

O Humnavaa

E-------------------------------------------------------------------------------------------------------------

B------------------------1-----------------------------------------------------------------------------------

G-----------1-----3----------3------1-------------------------------------1---------1----------------------

D-----3-----------------------------------3------1-------------1-----3----------3--------------------------

A-------------------------------------------------------------------------------------------------------------

E-------------------------------------------------------------------------------------------------------------

Tum

Dena

Saath

Mera

O Humnavaa

E-------------------------------------------------------------------------------------------------------------

B------------------1----------1------------1---------------------------1------------------------------------

G----3-----1--1------------------3----1-------------3----3-1----3---------3---1----3--------------------

D------------------------------------------------------------------------------------------3-----------------

A-------------------------------------------------------------------------------------------------------------

E------------------------------------------------------------------------------------------------------------Na Koi Hai

Na Koi Tha

Zindagi Mai Tumharay Siwaaa

E-------------------------------------------------------------------------------------------------------------

B------------------------1-----------------------------------------------------------------------------------

G-----------1-----3----------3------1-----3------------------------------3----1---------1-----------------

D-----3----------------------------------------3--------------1-----3--------------3-----------------------

A-------------------------------------------------------------------------------------------------------------

E------------------------------------------------------------------------------------------------------------Tum

Dena

Saaath

Mera

O Humnavaaaaaaaa

kisiikii MuskuraahaTo Pe Ho Nissar

kisiikii muskuraahaTo

E -------------3-----------3----------------3-------------B --1--4--1-------1--4--1------1---4----1-----------------G --------------------------------------------------------C D# C

G C D# C G C D# C G

kisiikii muskuraahaton pe ho nisaar

E -------------3--------------3--------------1------------B --1--4---1------1---4----1-----1---3---4----------------G --------------------------------------------------------C D# C G C D# C G C D D# F


kisiikaa dard mil sake to le udhaar

E ------------1-------------1-----------------4-----------B --3-4--3------3--4---3-------3--4----1------------------G --------------------------------------------------------D D# D F D D# D

F D D# C

G#

kisiike vaaste ho tere dil mein pyaar

E ---4---6----7--6----4-----6--4---3-----------------------

B --------------------------------------------------------G --------------------------------------------------------G# A# B A# G#

A# G# G

jeenaa is e kaa naam hai

The Music -- very melodious -- if you are confortable, play a pitch higher

E ---------3--8-6-----------------3--4--3-----------------B ------4----------------------4--------------------------G --3----------------------3------------------------------A# D# G C A#

A# D# G G# G

E ------3--1--3------3--1--3------1-----------------------B --4------------4------------4------3--4---1-------------G --------------------------------------------------------D# G F G D# G F G D# F D D# C

E -----11---10-11-10----8-7---8---7-8-10---11-------------B -8------------------------------------------------------G ---------------------------------------------------------

G D#

D D# D C B C B C D D#

maanaa

apan ee jeb se fakiir hain

E --11---10-----11---10--8----7---8----3-4--1---3---------B --------------------------------------------------------G --------------------------------------------------------D#

D# D C

B C

G G# F G

phir bhii yaaro.n dil ke ham amee.r hain

E -------------3-------------3--------------3-------------B --1--4---1------1---4---1------1---4---1----------------G --------------------------------------------------------C D# C G C D# C G C D# C G


miTe jo pyaar ke liye vo zindagii

E -------------3-------------3--------------1-------------B --1--4---1------1---4--1-------1--3--4------------------G --------------------------------------------------------C D# C G C D# C G C D D# F


jale bahaar ke liye vo zindagii

E --------------1--------------1------------4-----------B --3--4---3-------3--4----3------3----4-1----------------G --------------------------------------------------------D D# D F D D# D F D D# C G#


kisii ko ho na ho hamen to aitabaar

E ---4---6----7--6----4-----6--4---3----------------------B --------------------------------------------------------G --------------------------------------------------------G# A# B A# G#

A# G# G

jeenaa is e kaa naam hai

rishtaa dil se dil ke aitabaar kaa


zindaa hai hamii.n se naam pyaar kaa
ke mar ke bhii kisii ko yaad aaye.nge
kisii ke aa.Nsuo.n me.n muskuraaye.nge

kahegaa phuul har kalii se baar baar


jiinaa isii kaa naam hai

Neele Neele Ambar par


Neele Neele Ambar per

STARTING...

E--------------------------------------------------------------------------B--------------------------------------------------------------------------G------2-------3--2--3--2--3--2--3--2-------0-2-0----0---------------0-----D--0-----------------------------------------------3----3--2--0------2-----A----------------------------------------------------------------0---0-----E---------------------------------------------------------------------------

E------1---5--3----3--5-3-------------------3----1-3-1---------------------B--3-----------------------5--------------5------------3-------------------G------------------------------------5-------------------------------------D---------------------------------------------------------------------------

A--------------------------------------------------------------------------E--------------------------------------------------------------------------neele neele ambar par,

chaand jab aaye

E------1---5--3--------------------3---1-----------------------------------B--3--------------5------------5-----------3-------------------------------G-------------------------5------------------------------------------------D--------------------------------------------------------------------------A--------------------------------------------------------------------------E--------------------------------------------------------------------------pyaar barasaae,

hamako tarasaaye

E----------------1----10---10-10------10--------10----8---8--8-8-8---------B---3------3------------------------------10-------------------------------G------2-------------------------------------------------------------------D--------------------------------------------------------------------------A--------------------------------------------------------------------------E--------------------------------------------------------------------------aisaa koii saathii ho

aisaa koii premii ho

E------5--8---6---6---6--8-6-5---------------------------------------------B--6-----------------------------------------------------------------------pyaas dil kii bujhaa jaae

E------1---5--3----3--5-3-------------------3------------------------------B--3-----------------------5--------------5------5-6-8-6-------------------G------------------------------------5-------------------7-----------------D--------------------------------------------------------------------------neele neele ambar par,

chaand jab a.aye

E---------5--3--------------------3----------------------------------------B-----5-----------5------------5-----5-6/8---------------------------------G--7-----------------------5----------------7------------------------------D--------------------------------------------------------------------------pyaar barasaae,

hamako tarasaaye

E------------5---10--10-10-10------------------10---8---8--8-8-8-----------B------------------------------------------10------------------------------G--7-----7------------------------------10---------------------------------D------7--------------------------------------------------------------------

A--------------------------------------------------------------------------E--------------------------------------------------------------------------aisaa koI saathii ho

aisaa koI premii ho

E------5--8---6---6---6--8-6-5---------------------------------------------B--6-----------------------------------------------------------------------G--------------------------------------------------------------------------pyaas dil kii bujhaa jaae

The MUSIC IN BETWEEN

E--------------------------------------------------------------------------B--------------------------------------------------------------------------D--2-4----5---7--8-8/9--9-9-9---9-9-h11-----9------9--11-11-11/12-12-12-12-A----------------------------------------13-----10-------------------------E---------------------------------------------------------------------------

E--------------------------------------------------5-5-5-5---3-3-3-3---1-1-1-1
B----------------------7--h9-h9-h9----5-h7-h7-h7---6-6-6-6---5-5-5-5---3-3-3-3
G---7-7-h9------9-7-9--------------7---------------7--------------------------

D-----------11---------------------------------------------------------------A----------------------------------------------------------------------------E-----------------------------------------------------------------------------

E--------------------------------------------------------------------------B------1-------------------------------------------------------------------G--2-3---3-2-0---0-2-0-----------------------------------------------------D--------------3-------3-0-------------------------------------------------A--------------------------------------------------------------------------E---------------------------------------------------------------------------

E--10--10--10---10--10--10--10---------10--12--10---8----------------8-----B-------------------------------------------------------10----10-10--------G---------------------------------------------------------10---------------D--------------------------------------------------------------------------A--------------------------------------------------------------------------E--------------------------------------------------------------------------ho, uunche uunche parvat

jab chuumate hai ambar

ko

E--6---6---6----6--6--6---------6---8----------------------8---------------B---------------------------------------9----------9-9-9-------------------G------------------------------------------10-10---------------------------D--------------------------------------------------------------------------A--------------------------------------------------------------------------E--------------------------------------------------------------------------pyaasaa pyaasaa ambar

jab chuumataa hai saagar ko

E--------------------------------------------------------------------------B--------10--8-8-10-8--------------------8----6-6--8-6---------------------G-----10---------------999------------9-----------------7-7-7--------------D--12----------------------------10----------------------------------------A--------------------------------------------------------------------------E--------------------------------------------------------------------------pyaar se kasane ko

baaho.n me.n basane ko

E--------------------------------------------------------------------------B----------10--8-10--8-------------------8--6--8-6-------------------------G-----10---------------9--------------9------------7-----------------------A---------------------------------------------------------------------------

D--12------------------------------10--------------------------------------E--------------------------------------------------------------------------dil meraa lalachaaye

koI to aa jaaye

E------------5---10--10-10-10------------------10---8---8--8-8-8-----------B------------------------------------------10------------------------------G--7-----7------------------------------10---------------------------------D------7-------------------------------------------------------------------A--------------------------------------------------------------------------E--------------------------------------------------------------------------aisaa koI saathii ho

aisaa koI premii ho

E------5--8---6---6---6--8-6-5---------------------------------------------B--6-----------------------------------------------------------------------E--------------------------------------------------------------------------A--------------------------------------------------------------------------pyaas dil kii bujhaa jaae

Neele Neele ambar per

SAME AS ABOVE

The MUSIC IN BETWEEN

E--------------------------------------------------------------------------B--------------------------------------------------------------------------G---2--2--2---2-2-2-2-2-2-2-2-2-2-2-2-2-2-h3-h4-h5-2-----------------------D---0--2--0------------------------------------------2-h3-h4-h5-2----------A--------------------------------------------------------------------------E---------------------------------------------------------------------------

E-------------------------------------------------------------------0------B------1-1-3-1----1-------------------------------------------------0------G--2-3----------3---3--2--3--2--0--2--0-----0-----------------------0------D----------------------------------------3-----3--2--3--2--0--2--0--2------A-------------------------------------------------------------------0------E---------------------------------------------------------------------------

E--------------------------------------------------------------------------B---------------------------------------------------------------------------

G------------------------------------------0-0-0-0-2-2-2-2-3-3-3-3---------D------------------0-0-0-0-2-2-2-2-3-3-3-3---------------------------------A--1-1-1-1-3-3-3-3---------------------------------------------------------E---------------------------------------------------------------------------

E-----------------------------------------------------1-1-1-1-3-3-3-3--3--3B------------------------------------1-1-1-1-3-3-3-3-------------------4--4G-----------0-0-0-0-2-2-2-2-3-3-3-3------------------------------------5--5D--3-3-3-3-----------------------------------------------------------------A--------------------------------------------------------------------------E---------------------------------------------------------------------------

ho, thande thande jhonke


jab baalon ko sahalaaen
tapatii tapatii kiraNen

jab gaalon ko chhu jaen


saanson kii garamii ko
haathon kii naramii ko
dil meraa tarasaae
koI to chhU jaye
aisaa koI saathii ho
aisaa koI premii ho
pyaas dil kii bujhaa jAe
neele neele ...

chham chham karataa saavan


bundon ke baan chalae
satarangii barasaaton men jab
tan man bhIgaa jaae
pyaar men nahaane ko
duub hii jaane ko
koi to aa jae
khvaab jagaa jaaye
aisaa koI saathii ho
aisaa koI premii ho
pyaas dil kii bujhaa jae
neele neele ...

I want it that way - Backstreet Boys


Here we go....

Backstreet Boys, I Want It That Way.


Tabbed by Travis Gasa, smartbomber@aol.com.
Backstreet Boys
I Want It That Way
Millennium Album
Tabbed By: Travis Gasa
e-mail: smartbomber@aol.com
I don't really like the Backstreet Boys, but the guitar in some of
their songs sounds pretty cool.
I looked everywhere for tabs for this song, but they were all wrong.
The intro is tabbed exactly as it is played in the song. The chords
I have tabbed sound correct. My version should also be very easy to
follow.
The song changes key halfway through. After the tabbed guitar part in
the bridge, the song climbs one whole-step higher. Before this part,
the D chord should be played normally. After this point the D should be
played as noted. The Em-1 chord shown in the bridge is not really
called that. I just don't know the name, so I'm just calling it Em-1. I
tried to tab this song to the correct beat, although you may find it

isn't. The best solution is to listen to the song and figure out the
correct beat that way.
Chords:
D
-2-3-2-0-x-x-

|
Em
-0-0-0-2-2-0-

-3-5-5-5-3-x-

-3-3-4-5-5-3-

-0-0-1-2-2-0-

-0-2-2-2-0-x-

Em-1

Am

-0-0-0-0-2-x-

-0-1-2-2-0-x-

Dsus4

F#m

-3-3-2-0-x-x-

-2-2-2-4-4-2-

|
|
|
|
|
|
|
|
|

2nd half
D

-0-3-2-0-x-x-

Order of song:
Intro
Verse 1
Chorus
Verse 2
Chorus
Bridge
Chorus #2
Chorus #2 (yes again)
Ending
Capo 2nd fret for entire song
Intro:
[E]---------------------------------|--------------------------------[B]-----0-----1p0-------0-------3---|-----0-----1p0-------0-------3--[G]-------0-------0-----------0---0-|-------0-------0-----------0---0[D]---2-----2---------2-----0-------|---2-----2---------2-----0------[A]-----------------3---------------|-----------------3--------------[E]-0---------------------3---------|-0---------------------3--------Yeah...
You are
[E]---------------------------------|--------------------------------[B]-----0-----1p0-------0-------3---|-----0-----1p0-------0-------3--[G]-------0-------0-----------0---0-|-------0-------0-----------0---0[D]---2-----2---------2-----0-------|---2-----2---------2-----0------[A]-----------------3---------------|-----------------3--------------[E]-0---------------------3---------|-0---------------------3--------my fire
the one
desire
believe
Em
D
G
[E]---------------------------------|-0------------------2-------3---[B]-----0-----1p0-------0-------3---|-0---0-----1p0------3-------3---[G]-------0-------0-----------0---0-|-0-----0-------0----2-------4---[D]---2-----2---------2-----0-------|-2-2-----2----------0-------5---[A]-----------------3---------------|-2--------------------------5---[E]-0---------------------3---------|-0--------------------------3---when I
say
I
want
it
that
way
VERSE 1:

Em
C
But we are two
C
G
Can't reach to
C
G
When you say
Em
That I want it

G
Em
worlds apart
Em
your heart
D
G
that way

CHORUS:
C
Tell me why
D
G
(Ain't nothin' but a heartache)
C
Tell me why
D G
C
(Ain't nothin' but a mistake tell me why)
D
G
I never wanna hear you say
Em
D
G
Em
B
I want it that way
<---2nd TIME:(I want it that way)
VERSE 2:
Em
C G
Am I your fire
Em
C G
Your one desire
Em
C
G
Yes I know it's too late
Em
D
G
But I want it that way
-TO CHORUSBRIDGE:
Em
Em-1
Now I can see that we're fallin' apart
C
Am
D
>From the way that it used to be, yeah
Em
Em-1
No matter the distance I want you to know
Am
Dsus4
D
That deep down inside of me
(NO CHORDS)
You are my fire
The one desire
You are, you are, you are, you are

[E]-----0-----3---3/7-----5----[B]-----0----------------------[G]-----0----------------------[D]-----2----------------------[A]-----2----------------------[E]-----x----------------------k
2ND HALF - PLAY D CHORD HERE AS SHOWN IN CHORD LIST FOR 2ND HALF
D
Don't wanna hear you say
E
A
Ain't nothin' but a heartache
D
E
A
Ain't nothin' but a mistake
(Don't wanna hear you say)
D
E
A
I never wanna hear you say
E
A
I want it that way

F#m

CHORUS #2 ONE-STEP HIGHER:


D
Tell me why
E
A
(Ain't nothin' but a heartache)
D
Tell me why
E
A
D
(Ain't nothin' but a mistake tell me why)
E
A
I never wanna hear you say
(Don't wanna hear you say)
F#m
E
A
I want it that way

<---2ND TIME:(Never wanna hear you say it)

-TO CHORUS #2ENDING TO CHORUS #2: (NO CHORDS)


Cuz I want it that way

---> And the scale of the rest of the song get increased by 1 <---

Strumming Pattern (1/8th notes in a bar )-

Example down down/up down/up/down


E||--0-----0---0----0---0---0--||
B||--1-----1---1----1---1---1--||
G||--2-----2---2----2---2---2--||
D||--2-----2---2----2---2---2--||
A||--0-----0---0----0---0---0--||
E||----------------------------||
Same Pattern For the Verse I WITH THE SAME CHORDS.(Am E G D )
(till, where i'm goin does anybody guess)

STRUM ALL THE FOUR CHORDS IN THE ABOVE PATTERN OVER THE NOTES PLAYED BY GU
THEN PAUSE AND STRUM THE CHORD - C

(SLOWY - EACH NOTE SOUNDING VERY CLEAR

AND THEN ...


----------------------------------------------

Second Verse Consists of ONLY GUITAR II - ( from, i tried to go like ....)


Chords used are Em G D C
STRUMMING PATTERN IS DIFFERENT HERE ,
ITS OF 2 BARS AND A BIT CONFUSING FOR BEGINNERS .
DOWN
DOWN
UP
DOWN/UP/DOWN UP DOWN
E||--0--------0------0--|--3--3--3----3----3----||
B||--0--------0------0--|--3--3--3----3----3----||
G||--0--------0------0--|--0--0--0----0----0----||
D||--2--------2------2--|--0--0--0----0----0----||
A||--2--------2------2--|--2--2--2----2----2----||
E||--0--------0------0--|--3--3--3----3----3----||
Em
Em
Em
G G G
G
G

NOTE THAT THE CHORD CHANGES WITH THE BAR ,IT IS VERY IMPORTANT THAT U DO N
THESE CHORD SHIFTS.
SAME GOES FOR CHORDS - D AND C

Ho gayi hai mohabbat chords


its a terrific song to sing. hope my chords work
Em.......C........D.......Em
ho gayi hai mohabbat tumse
Em...........................C
aye palko mein khwab ban ke
D...........................Am
rehgaye sar aankhon par
Em..................C
bade hai ehsaan hum pe
D...................Am
dil mein kiya jo basar
C
ho ooooo
[same pattern]
mil gayi hai amanat tumse
ho gayi hai mohabbat tumse
rakhe sari jahan ki khusiyan
tumhare kadamo par
dekhe na mudke duniya
awaaz de do agar
hoooo
le rahe hai izazat tum se
ho gayi hai mohabbat tumse
hale dil apna sunake dekhe hua kya asar
naraz humse na hona bahon mein lelu agar
hoooooo
itni sio hai inayat tumse
ho gayi hai mohabbat tumse
Em.......................C..........D
tumse hamesha mein pyar karunga
Em........................C.......D

siva tumhare koi naam na luunga


Em........................C.......D
tumse hamesha mein pyar karunga
Em.......................C........D
siva tumhare koi naam na luunga
F#m.......D.............E.......F#m
i WIll always love you all my life
F#m.......D.............E.......F#m
keh rahe hai haqiqat tumse
F#m.......D.............E.......F#m
i will always love you all my life
F#m.......D.............E.......F#m
zindagi hai zannat tumse
F#m.......D.............E.......F#m
i will alyas love you all my life
F#m.......D.............E.......F#m
keh rahe hai haqiqat tumse
__________________
Aaj, aaj ek hansee aur baant lo ,
Aaj, aaj ek dua aur maang lo
Aaj, ek aansu aur pi lo
Kya pata, kal ho naa ho

chords are
ho gayi hai mohabbat tumse
c Am G Em

I strum using this pattern DDDU

Nothing else matters


Metallica - Nothing else matters '99 version
Original version by: Martijn van Welie (mwelie@cs.vu.nl)
Edited by Ruud Claessen (ruudje@post.com)
Comments or corrections please mail me.
Tuning: Eb Ab Db Gb Bb Eb
Intro
6/8 time
Eb-------0-----|-------0-----|-------0-----|-------0---7-|
Bb-----0---0---|-----0---0---|-----0---0---|-----0---0---|
Gb---0-------0-|---0-------0-|---0-------0-|---0---------|
Db-------------|-------------|-------------|-------------|
Ab-------------|-------------|-------------|-------------|
Eb-0-----------|-0-----------|-0-----------|-0-----------|
P (9/8 time) H P S P S
Eb-7-----------7^0---------|---------7---8---7^8\5---7-5-/0------|
Bb---------0-------0-------|---------0---0-----------0-------5---|
Gb-----0---------------0---|-----0-------------------------------|
Db-------------------------|-------------------------------------|
Ab-------------------------|-------------------------------------|
Eb-0-----------------------|-0-----------------------------------|
P
Eb-------------2^0---------|-------------0---0---0---|
Bb-5-------5-------5-------|---------5-------5---5---|

Gb-----5---------------5---|-----5-----------5---5---|
Db-------------------------|-------------------------|
Ab-0-----------------------|-0---------------0---2---|
Eb-------------------------|-------------------------|
P H P P H
Eb-0-----------3^0-----0---|-0----------0^5^0---------|
Bb-5-------5-------5---5---|-7---7-5-7--------7^0-5^0-|
Gb-5-----5---5-------5-5---|-7------------------------|
Db-------------------------|--------------------------|
Ab-3---3---------------3---|-5------------------------|
Eb-------------------------|--------------------------|
<.NH.>
Eb-------12----|-------0-----|-------0-----|-------0-----|
Bb-----12--0---|-----0---0---|-----0---0---|-----0---0---|
Gb---12------0-|---0-------0-|---0-------0-|---0-------0-|
Db-------------|-------------|-------------|-------------|
Ab-------------|-------------|-------------|-------------|
Eb-0-----------|-0-----------|-0-----------|-0-----------|
upstroke
Eb-------------7---7-------|-------------|-------------7-----------|
Bb-------------8---8-------|-----7-----5-|-------------8-----------|
Gb-----------9-----9-------|-----7-----5-|-----------9-------------|
Db---------9---------------|---7-----5---|---------9---------------|
Ab-------7-----------------|-5-----3-----|-------7-----------------|
Eb-0-----------------------|-------------|-0-----------------------|
Eb-------------|----------7-----7--------|-----5-----------3-------|
Bb-----7-----5-|----------------8--------|-------7-----------5-----|
Gb-----7-----5-|-------------9-----------|---------7-----------5---|
Db---7-----5---|-------------------------|-------------------------|
Ab-5-----3-----|-------7-----------------|-5-----------3-----------|
Eb-------------|-0-----------------------|-------------------------|
Eb-----3-------------------|-------0-----(0------)|-------0-----|
Bb-------3---------5-4-----|-----0---0---(-0-----)|-----0---0---|
Gb---------4---------------|---0-------0-(--0----)|---0-------0-|
Db-------------------------|-------------(---2---)|-------------|
Ab-------------2-----------|-------------(----2--)|-------------|
Eb-3-----------------------|-0-----------(-----0-)|-0-----------|
Main guitar part :
So close,no matter how far......
Eb-------------3----0---|-2---2-2-2-3--0--0-0-----|
Bb---------0----------0-|-3---3-3-3-3--3--3-3-----|
Gb-----0----------0-----|-2---2-2-2-2--0--0-0-----| repeat 2X
Db----------------------|-0---0-0-0-0--2--2-2-----|
Ab----------------------|--------------3--3-3-----|
Eb-0--------------------|---------------------3-2-|
Forever trusting who we are............and nothing else
matters
Eb-------------3----0---|-2---2-2-2-3--0--0-0-----------3--2------2---Bb---------0----------0-|-3---3-3-3-3--3--3-3-----------3--0--------0-Gb-----0----------0-----|-2---2-2-2-2--0--0-0---------0----2----------Db----------------------|-0---0-0-0-0--2--2-2--------------1----1-----Ab----------------------|--------------3--3-3--------------2--2--------

Eb-0--------------------|---------------------0-2-3-------------------Chorus guitar part


Never cared for what they do........
Eb-0-----0-----|-2-----2-2-2-3---2--0--2-|
Bb-1-----2-----|-3-----3-3-3-3---3--3--3-|
Gb-0-----2-----|-2-----2-2-2-2---2--2--2-|
Db-2-----2-----|-0-----0-0-0-0---0--0--0-|
Ab-3-----0-----|-------------------------|
Eb-------------|-------------------------|
Eb-0-----0-----|-2-----2-2-2-3---2--0--2-|
Bb-1-----2-----|-3-----3-3-3-3---3--3--3-|
Gb-0-----2-----|-2-----2-2-2-2---2--2--2-|
Db-2-----2-----|-0-----0-0-0-0---0--0--0-|
Ab-3-----0-----|-------------------------|
Eb-------------|-------------------------|
Eb-0-----0-----|-2-----2-2-2-0-----------|
Bb-1-----2-----|-3-----3-3-3-0-----------|
Gb-0-----2-----|-2-----2-2-2-0-----------|
Db-2-----2-----|-0-----0-0-0-2-----------|
Ab-3-----0-----|-------------2-----------|
Eb-------------|-------------0-----------|
Interlude
|-12------14---|-15-------17---|-8------8------|-------8--------|
|---12------12-|---12-------12-|---5------5----|----5-----5-----|
|--------------|---------------|-----5------5--|-5----------5\--|
|--------------|---------------|---------------|----------------|
|--------------|---------------|--------------0|----------------|
|--------------|---------------|---------------|----------------|
|-0--------0---|-0^2--------0--|-0--0~~~~0~~~~~|--------0-------|
|----1-------1-|-----3-------3-|-12-12~~~12~~~~|------0---0-----|
|-------2------|--------2------|---------------|----0-------0---|
|--------------|---------------|---------------|----------------|
|--------------|---------------|---------------|----------------|
|--------------|---------------|---------------|-0--------------|
|-12------14---|-15-------17---|-8------8------|-8-----8--------|
|---12------12-|---12-------12-|---5--------5--|---5-----5------|
|--------------|---------------|-----5----5---5|-----5-----5----|
|--------------|---------------|---------------|----------------|
|--------------|---------------|---------------|----------------|
|--------------|---------------|---------------|----------------|
|-0--------0---|-0^2--------0--|-0--0~~~~0~~~~~|--------0---------|
|----1-------1-|-----3-------3-|-12-12~~~12~~~~|------0---0-------|
|-------2------|--------2------|---------------|----0-------0-----|
|--------------|---------------|---------------|------------------|
|--------------|---------------|---------------|------------------|
|--------------|---------------|---------------|-0------------3-2-|
Interlude solo * *

Eb|--------3-----3--5--5(7)5--5-----3--5---10--7--6(8)6-Bb|--3--5-----5------------------5----------------------Eb|--10--6(8)6---10--6(8)6---10--6(8)6---10--6(8)6---3-0*=bend and release


GOTO MAIN GUITAR PART
Guitar solo :
E5 E5(VII) | D5(V) C5(III)
E5 E5(VII) | D5(V) C5(III)
E5 E5(VII) | D5(V) C5(III) | G5(III) B5(II) | E5
B B R V V
Eb---------------------------|-------------------------------------|
Bb-15------15----------------|-------------------------------------|
Gb-14(16)--14(16)14-12--14-12|-11-12-11----11-------------12-14-12-|
Db---------------------------|----------14----12-14----------------|
Ab---------------------------|-------------------------------------|
Eb---------------------------|-------------------------------------|
B B B
Eb-------12-------12---------------------------hold bend-->--------|
Gb----12-------12----15^14^12-(approx.8x )--15(17)-15-15-15--------|
Gb-14(16)---14(16)---------------------|---------------------------|
Db-------------------------------------|---------------------------|
Ab-------------------------------------|---------------------------|
Eb-------------------------------------|---------------------------|
release bend
Eb-15(17)--15---14-15-|----15-14----14-15-14-12|-------------------Bb--------------------|-12-------12------------|-15-14-12----------Gb--------------------|------------------------|-----------12-14-12Db--------------------|------------------------|-------------------Ab--------------------|------------------------|-------------------Eb--------------------|------------------------|-------------------B R B B R P B
Eb-------------------------|-12--------------------hold----->-----release
Bb----------------------12-|-------12-15(17)15--12^15(17)-15-15-15-15-15Gb-14(16)14-12----12-14(16)|-------------------------------|------------Db-------------14----------|-------------------------------|------------Ab-------------------------|-------------------------------|------------Eb-------------------------|-------------------------------|------------H P S H P
Eb----------------------------------Bb-12^15^12~~~~~~\\\\\\7--5^7^5~~~~~~
Gb----------------------------------Db----------------------------------Ab----------------------------------Eb----------------------------------The end :
E-------0-----|-------0---7-|-7-----------7^0---------|
B-----0---0---|-----0---0---|---------0-------0-------|
G---0-------0-|---0---------|-----0---------------0---|
D-------------|-------------|-------------------------|

A-------------|-------------|-------------------------|
E-0-----------|-0-----------|-0-----------------------|
E---------7---8---7^8\5---7-5-/0--0--0-|
B---------0---0-----------0------------|
G-----0--------------------------------| repeat
D--------------------------------------|
A--------------------------------------|
E-0----------------------------------0-|

INTRO
VERSE 1
So close no matter how far
Couldn't be much more from the heart
Forever trusting who we are
And nothing else matters
VERSE 2
Never opened myself this way
Life is ours, we live it our way
All these words i don't just say
And nothing else matters
VERSE 3
Trust I seek and I find in you
Every day for us something new
Open mind for a diffrent view
And nothing else matters
CHORUS
Never cared for what do
Never cared for what they know
And I know
VERSE 1
CHORUS
INTERLUDE
VERSE 2
VERSE 3
CHORUS
Never cared for what they say
Never cared for games they play
Never cared for what do

Never cared for what they know


And I know
BEFORE SOLO
SOLO
LAST VERSE
So close no matter how far
Couldn't be much more from the heart
Forever trusting who we are
And nothing else matters
ENDING

Metallica
"Nothing Else Matters"
(Hetfield/Ulrich/Hammet)
Tabbed by: bernd.egl@freenet.de
Questions, comments, corrections ? Mail me !

Arranged for single accoustic guitar.


I know that it's not correct in every way, but... it works :)
This is how they play it on their "Accoustic Radio Tour 1997"...
well... almost, hehehe. I also included the lyrics at the bottom, but I th
you all know the text (you should).
p = pull off
h = hammering
~ = vibrato/hold note
x = this string is not played
() = notes in brackets are played very softly
v = downstroke
^ = upstroke
Standard Tuning (E;A;D;G;B;e)
It's easier to play this one by fingerpicking,
and it's not as difficoult as it seems.
So here we go...

Intro (clean)
e---------0-----------0-----------0-----------0----B-------0---0-------0---0-------0---0-------0---0--G-----0-------0---0-------0---0-------0---0--------D--------------------------------------------------A--------------------------------------------------E---0-----------0-----------0-----------0----------e---7-7------7p0---------7-8-7h8p7p5-7p5p0-----------------B-------0--------0-------------------------5----5-7p5~-p0--G---------0--------0---0---------------------5-------------D----------------------------------------------------------A--------------------------------------------0-------------E-----0--------------0--------------------------------------

e---------0-----------------3-----p0-----------5-----p0----------12------B-------5----5--5--5----5-----5-------7----7-----7------------12----(12)-G-----5------5--5--5--5---5-----5-----7--7---7-----7-------12-----------(1
D------------------------------------------------------------------------A---0--------0--2--3------------------5----------------------------------E--------------------------------------------------------0---------------e---------0-----------0-----------0---------------B-------0---0-------0---0-------0---0-------------G-----0-------0---0-------0---0-------0-----------D-------------------------------------------------A-------------------------------------------------E---0-----------0-----------0-----------0(heavy)--Let the heavy-played 0' on the E-string ring and continue with this
Note that there's no break between the 0' and this...
e--------(0)-----------------------(0)----------------B---------8-------7------5----------8-------7------5--G-------9---------7------5--------9---------7------5--D-----9---------7------5--------9---------7------5----A---7---------5------3--------7---------5------3------E---------------------------0-------------------------Em
e-----------7----5--------3--------3--------2--------------0--------0--B-----------8------7--------5--------3--------4----------0---0------0--G---------9----------7--------5--------4--------2-(p0)-0-------0----0--D-------9-----------------------------------------------------------2--A-----7--------------------------3--------2-------------------------2--E---0----------5--------3----------------------------0-----------0--0--Wow! That's it with the intro. After a moment of silence and a stupid

conversation, they play this...


Verse (still clean)
D D D C
e-------------3p0--2--2--2--0--B-----------0------3--3--3--1--G---------0--------2--2--2--0--D------------------0--0--0--2--A------------------x--x--x--3--E---3-2-0----------x--x--x--x--v ^ v

R
E
P
E
A
T this through the whole verse.

So close, no matter how far...


End of verse
Em
e-------------0------0--B-----------0---0----0--G---------0-------0--0--D--------------------2--A--------------------2--E---3-2-0------------0--...else matters
After the 3rd verse, they play this
C A D D
D D D D D D C A D D
e-------------0------0--0--2--2--|---2-2-2-2-2-2--0--0--2-2---|--B-----------0---0----1--2--3--3--|---3-3-3-3-3-3--1--2--3-3---|--G---------0-------0--0--2--2--2--|--2-2-2-2-2-2--0--2--2-2--|--D--------------------2--2--0--0--|--0-0-0-0-0-0--2--2--0-0--|--A--------------------3--0--x--x--|---x-x-x-x-x-x--3--0--x-x---|--E---3-2-0------------x--x--x--x--|---x-x-x-x-x-x--x--x--x-x---|--v v v ^
^ v ^ v ^ v v v v ^
...else matters
never cared for what they...
Repeat this, till...
D D D D
e---2-2-2-2--2------B---3-3-3-3----3----G---2-2-2-2------2--D---0-0-0-0---------A---x-x-x-x---------E---x-x-x-x---------^ v ^ v
...but I know...

That's the point when James plays the small clean solo (as described benea
In the background Kirk plays the verse'.

James' Solo (clean)


e---12-----14-----15-----17-----8-----8---------------8------B------12-----12-----12-----12----5-----5-------5---5---5----G-----------------------------------5-----5---5---5-------5--D------------------------------------------------------------A-------------------------------------------0----------------E------------------------------------------------------------e---0------0----0------0----7-7~--7-7~--- (you can also play
B-----1------1----3------0--------------- --12-12~--12-12~-- here)
G-------0-----------2-------------------D---------------------------------------A---------------------------------------E---------------------------------------- Play the solo 2 times.
Then they play the verse' and the chord thing' which they've played
after the 3rd verse.
After the verse Kirk plays in the background something like that:
(Instead of the distortion, play the chords heavy!!)
Em Em Em Em Em Em Em D D D C
e--|---0--0--0--0--0--0--0--2--2--2--0---|-B--|---0--0--0--0--0--0--0--3--3--3--1---|-G--|--0--0--0--0--0--0--0--2--2--2--0--|-D--|--2--2--2--2--2--2--2--0--0--0--2--|-A--|---2--2--2--2--2--2--2--x--x--x--3---|-E--|---0--0--0--0--0--0--0--x--x--x--x---|-v v ^ v ^ v ^ v ^ v

And James plays his distorted solo.


You wonder where James' solo is ? Well, I don't know.
I couldn't figure it out (sorry). But on accoustic guitar it sounds shit
anyway. If someone has a good interpretation of the solo,
please mail it to me!! Or you take the solo from the original version, whi
At the end of the song, Kirk plays (clean again):
e---------0-----------0-----------0----7-7-----7p0----------B-------0---0-------0---0-------0---0------0-------0--------G-----0-------0---0-------0---0--------------0-------0---0--D-----------------------------------------------------------A-----------------------------------------------------------E---0-----------0-----------0------------0-------------0-----

e--|--7-8-7h8p7p5-7p5-p0-0-----0-----------0-----|-B--|-------------------------0---0-------0---0---|--

G--|----------------------0-------0---0--------|-D--|-------------------------------------------|-A--|---------------------------------------------|-E--|---------------------0-----------0-----------|-- Repeat this and end o


e---7-8-7h8p7p5-7p5-p0-0--B-------------------------G-------------------------D-------------------------A-------------------------E-------------------------And that's it !! Hope you enjoyed it !! I did !!
Remember that this is my interpretation of the accoustic version
of NEM. There are some differences to the original recording on the
Black Album of Metallica.
Watch out for the accoustic version, feat. Chris Isaak, Jerry Cantrell,
Les Claypool, Pepper Caynen and others... it really kicks ass!
Any response to this is welcome. Please note that this was a lot of work.
bernd.egl@freenet.de

Bailamos
artist: Enrique Iglesias
tab: "BAILAMOS"
by Enrique Iglesias
tabbed by jerrybean@hotmail.com

|------------------|
|
Key
|
|
|
| / = slide up
|
| \ = slide down
|
| h = hammer
|
| p = pull
|
| ~ = vibrato
|
|------------------|

Intro Part 1 (with Guitar only)


e---------------------------------------------------------B---------------------------------------------------------G---------------------------------------------------------D---------7---10---9---7---9---7--------------------------A---5/7----------------------------8----------7h8p7h8p7---E----------------------------------------------------------

Intro Part 2 (with guitar and rhythm-listen to song for timing)


e---------------------------------------------------------B---------------------------------------------------------G---------------------------------------------------------D------7h10--9--7--9~~-----7------------------------------A---7-------------------------8--------7h8p7--5--7--------E---------------------------------------------------------e---------------------------------------------------------B-----8---------------------------------------------------G--------10--9--7-----------------------------------------D--7-------------------10p9p7-----------------------------A---------------------------------------------------------E---------------------------------------------------------INTRO:Am-Dm-Am-Dm [LISTEN TO SONG FOR EXACT TIMING]
VERSE 1: Am-Dm-G-F-Am
Am-Dm-G-F-E
Am-F-C-G-E
CHORUS: Am-G-F
Am-G-F
Am-G-F
Am-G-F-E
solo after 1st chorus
e-------------------------------------------------------------B--9--9------9--10--9-----------------------------------------G----------------------9---------------------------------------

D-------------------------9--7----7/9\7------7/10\9--10--9--7-A-------------------------------------------------------------E-------------------------------------------------------------e-------------------------------------------------------------B-------------------------------------------------------------G--9--10--9--10--9--------------------------------------------D-------------------10--10/12------10p9p7--6/7----------------A-------------------------------------------------------------E-------------------------------------------------------------VERSE 2:
Here is where the 2 guitars play together.
Guitar 1 plays the same chords as verse 1.
Guitar 2 plays individual solos with each line of
of lyrics.
Play this solo after...
exactly

.......this set of l
what the lyrics are,
song)

e--------------------------------------------B--------------------------------------------yours...."
G--9h10--9-----7-----------------------------D----------------10--9-----------------------A--------------------------------------------E--------------------------------------------e--------------------------------------------B--------------------------------------------happen, I'm so sure"
G--------------------------------------------D--------9h10--9--7--9h10~~~-----------------A--7--8--------------------------------------E--------------------------------------------e--------------------------------------------B--------------------------------------------go...."
G--7/9--7/9--7~~~----------------------------D--------------------------------------------A--------------------------------------------E--------------------------------------------e--------------------------------------------B--------------------------------------------I think you should know"
G--------------------------------------------D-----7------9--10--9--7---------------------A--7-----------------------------------------E---------------------------------------------

"Tonight, I'm

"....We can make i

"now I'm letting

"There is something

e--------------------------------------------B--------------------------------7--7/9------your side,
G--------------------------------------------the night
D--9----9h10---------------------------------the stars"
A--------------------------------------------E---------------------------------------------

"I won't be leaving


or come dance in
I'm gonna reach for

REPEAT CHORUS
INTERLUDE: Same chords as chorus
Solo after interlude
e-----------------------------------------------------------B-----------------------------------------------------------G--------------------------------------7-------7/9--7-------D-----7--10--9--7--10--9------7/9--10-----10----------------A--7--------------------------------------------------------E-----------------------------------------------------------e-----------------------------------------------------------B-----------------------------------------------------------G--10--9--7--9--10----9--7--9----9/10~~~----9--7------------D-----------------------------------------------------------A-----------------------------------------------------------E-----------------------------------------------------------e-----------------------------------------------------------B--6/8------------------------------------------------------G-------10--9--7--------------------------------------------D-----------------10--9--7----------7----9------------------A---------------------------6--5/7--------------------------E-----------------------------------------------------------e--7--8--10--10----8----10/12--10---------------------------B-----------------------------------------------------------G-----------------------------------------------------------D-----------------------------------------------------------A-----------------------------------------------------------E-----------------------------------------------------------e-----------------------------------------------------------B--10--13--12----10--12--10------10--13--12----10--12--10---G-----------------------------------------------------------D-----------------------------------------------------------A-----------------------------------------------------------E-----------------------------------------------------------e-----------------------------------------------------------B--12----10-------------------------------------------------G------------12---------------------------------------------D------------------9----7/9----7--5--------------------------

A------------------------------------7--5-------------------E------------------------------------------7--5-------------RETURN TO CHORUS
strummin : DU UDUD

Am[2]........FM[2]..GM[1].....FM[1]......Am[2]
Tonight we dance,i leave my life in ur hand...
Am[2]........FM[2]...GM[1].....FM[1].......EM[2].
we'll take the floor, nothing is forbiddon anymore

Am[5].................................GM[1]....EM[2]......
Dont let the..............nothing can stop us tonight...
Am[2]..............GM[1]...........FM[1]....Am[2]
bailamos ...let the ryhthem take u over bailamos
Dm[1].......Am[1]
te qiero...niambonio
Am[2]..............GM[1]..........FM[1]....AM[2]
Bailamos....gonna live this nite for ever bailamos
Dm[1]..........Am[1].......EM[2]
te qiero......niambonio....te qiero

Am[2]........FM[2]..GM[1].....FM[1]......Am[2]
Tonight i'm yours ,we can make it happen i'm so sure...
Am[2]........FM[2]...GM[1].....FM[1].......EM[2].
now let it go ..there is something i wish u shud know

Am[5].............................GM[1]....EM[2]......
i wont be..............i'm gonna reach for the stars...
Am[2]..............GM[1]...........FM[1]....Am[2]
bailamos ...let the ryhthem take u over bailamos

Dm[1].......Am[1]
te qiero...niambonio
Am[2]..............GM[1]..........FM[1]....AM[2]
Bailamos....gonna live this nite for ever bailamos
Dm[1]..........Am[1].......EM[2]
te qiero......niambonio....te qiero

Am...................FM
wo o o o tonight we dance
Am..................GM
wo oooo theres no tomorrow
Am...................FM
Wo ooo if u will stay wid me

strumming goes like : DU UDUD

That's the whole song broken down for ya.


comments, or corrections,
send them to jerrybean@hotmail.com

If you got any questions,

Artist: Enrique Iglesias

Be with you
Submitted by: A Arjomandi
Intro
Time:
(0:00-0:03)
(0:04-0:06)
e-----7--5--4----------------------------------------------B--------------7-----7-5-7--7/9--9--------------------------

G--4-------------------------------------------------------D----------------------------------------------------------A----------------------------------------------------------E----------------------------------------------------------(0:08-0:10)
(0:12-0:17)
e-----5/7--5--7/9------------------------------------------B------------------7------5\4-2------9/10-9----------------G--4-------------------------------------------------------D----------------------------------------------------------A----------------------------------------------------------E----------------------------------------------------------(1:28-1:35)
e----------------------------------------------------------B--7/9--7-5-4------------555/7\5---------------------------G-------------6--------------------------------------------D---------------6\5/6--5-----------------------------------A----------------------------------------------------------E----------------------------------------------------------(1:48-1:50)
(2:16-2:18)
(2:21-2:22)
e----------------------------------9-----------------------B--------7-7/9-7-5/7-----9-10-12-----9------4-5-4/5\4------G----8-9----------------------------------------------6----D--6-------------------------------------------------------A----------------------------------------------------------E----------------------------------------------------------Solo
(2:25-2:34)
e---------------5/7-7-7-5-4-5-3/4-12--161616-14-12-11-12---B--7/9-9-9-7-5-7-----------------------------------------12G----------------------------------------------------------D----------------------------------------------------------A----------------------------------------------------------E----------------------------------------------------------(2:51-2:52)
(2:59-3:01)
(3:06-3:07)
e----------------------------------------------------------B--7-5-7-7/9-9------------8-6-5/6\5--------4H5-7-5-4-------G-------------------7-5-7-----------7----------------6-----D----------------------------------------------------------A----------------------------------------------------------E----------------------------------------------------------(3:14-3:16)
(3:21-3:23)
e----------------------------------------------------------B----4-5-7--5-4-5------121212-10-9-10-9-7-9-7-5-7-----------

G--6-------------------------------------------------------D----------------------------------------------------------A----------------------------------------------------------E-----------------------------------------------------------

Hero by Enrique Iglesias

tabbed by leifer
sorry if they're any mistakes. if there are, its more than likely just a c
to figure out. if its a big one, then i suck at tabbing
Intro:
Let the very last note ring
E------3---------3----------3----------3----------3------|
B--------3---------3----------3----------3----------3----|
G----0-----0---0-----0----0-----0----0-----0----0-----0--|
D--------------------------------------------------------|
A---------------------------------------------3----------|
E-3----------3----------0----------0---------------------|
E------3-----------3-------|
B--------3-----------3-----|
G----0-----0-----0-----0---|
D--------------0---------0-|
A--3-----------------------|
E--------------------------|
Verse
E------3---------3----------3----------3----------3------|
B--------3---------3----------3----------3----------3----|
G----0-----0---0-----0----0-----0----0-----0----0-----0--|
D--------------------------------------------------------|
A---------------------------------------------3----------|
E-3----------3----------0----------0---------------------|
E-----3------------3-------------3-----------|
B--------3-------=---3-------------3---------|
G---0------0-----0-----0-------0-----0-------|
D--------------0---------0---0---------0-----|
A-3------------------------------------------|
E--------------------------------------------|

1)Would you dance.....if I asked you to dance..Would you run......and neve


2) Would you tremble..if I touched your lips...Would you laugh..oh please

2nd part of verse


repeat last G chord picking series thing once (so its played twice at the
E------3---------3----------3----------3----------3------|
B--------3---------3----------3----------3----------3----|
G----0-----0---0-----0----0-----0----0-----0----0-----0--|
D--------------------------------------------------------|
A---------------------------------------------3----------|
E-3----------3----------0----------0---------------------|
E------3-----------3------|
B--------3-----------3----|
G----0-----0-----0-----0-|
D--0----------------------|
A-------------------------|
E--------------3----------|

1)Would you cry.......if you saw me crying..Would you save my soul.......


2)Now would you die...for the one you love..Hold me in your....arms tonigh
Chorus I : (Strum this, figure out the rhythm on your own)
G
D
C
I can be your hero baby
G
D
C
I can kiss away the pain
G
D
C
I will stand by you forever
G
D
C
You can take my breath away
Verse
Would you swear that you'll always be mine
Would you lie would you run and hide
Am I in too deep have I lost my mind
Well I don't care you're here tonight
Repeat Chorus I
Solo
E---------------------------------------------------|
B---------------------------------------------------|
G---------------------------------------------------|
D-5-5-5-7-7/9-9--7/9-9-9-7-5-5----5-----------------|
A-----------------------------------5-5/77h8p7\5---|
E---------------------------------------------------|
E---------------------------------------------------------|
B---------7------------7------*7-8-7----------------------|
G-5/7-7-7---7----7-7-7---7--*7-------7-----------------7-|
D---------------------------*7---------7/9-7---7/9\5/7----|
A---------------------------------------------------------|
E---------------------------------------------------------|

*strum these so you can hear each individual note going up


Verse
Ohh I just wanna hold you
I just wanna hold you
Am I in too deep
Have I lost my mind
I dont care youre here tonight
Chorus II, repeated, same chords as 1st chorus
I can be your hero
I can kiss away the pain
And I will stand by you forever
You can take my breath away
You can take my breath away
I can be your hero

Saagar Jaisi Aankhon Waali


Film - Saagar
Singers - Kishore Kumar
Music Lyricists -------------------------------------------------------------------------------This is not the perfect one, but it sounds quite near the original.
I will try to improve this alter..
--------------------------------------------------------------------------------

E|--------0-0-------------------------------------0------0-|

B|------2-----2------2-3-5-6-----6----------2-2-----2----2-|
G|--2---2---------------------9--9--------2-----2-----2--2-|
D|----2---------------------------------2----------------2-|
A|--0------------------------------------------------------|
E|---------------------------------------------------------|

E|---------------------------0-----------------------------|
B|--3--1--0------------------0-----------------------------|
G|-----------2--1/2--1---1---1-----------------------------|
D|---------------------2-----2-----------------------------|
A|---------------------------------------------------------|
E|---------------------------------------------------------|

E|--------------------------0--------0-------0-------------|
B|-------0-1-3-1-0------------0--------0-------0-----------|
G|--1--2-----------2-1---1------2--------2-------2---------|
D|---------------------2----------2--------2-------2-------|
A|---------------------------------------------------------|
E|---------------------------------------------------------|

E|--12---12----------12----------12----------------------10-12-12-12-12-12--|

B|----------13-12-10----13-12-10----13-12-10--9-10-12-13--------13-13-13-13-|
G|--------------------------------------------------------------------------|
D|--14----------------------------------------------------------------------|
A|--------------------------------------------------------------------------|
E|--------------------------------------------------------------------------|

E|--4-5-7-5-4-------4-5/7-7/8-8/10-10/12-------------------|
B|------------6-3-6----------------------------------------|
G|---------------------------------------------------------|
D|---------------------------------------------------------|
A|---------------------------------------------------------|
E|---------------------------------------------------------|

E|-----------------------------------------------0---------|
B|-----------------------------------------------2---------|
G|----1-----1-----1-----1-----1-----1------------2---------|
D|--3---3-2---2-3---3-2---2-3---3----------------2---------|
A|--------------------------------3---3--2-3-2-0-0---------|
E|---------------------------------------------------------|

E|--12-----------12----------12----------12----------------|
B|-----13-12-10-----13-12-10----13-12-10----13-12-10-------|
G|---------------------------------------------------------|
D|---------------------------------------------------------|
A|---------------------------------------------------------|
E|---------------------------------------------------------|

E|--12-13-12---12-13-12---12-13-12-13-12-13-12---0---------|
B|---------------------------------------------------------|
G|---------------------------------------------------------|
D|---------------------------------------------------------|
A|---------------------------------------------------------|
E|---------------------------------------------------------|
--------------------------------------------------------------------------------

E|----5-5-7----8-7--8----5---5---7--5---5------------------|
B|--5------------------------------------------------------|
G|---------------------------------------------------------|
D|---------------------------------------------------------|
eaab

c b c e e f# e e

Chehraa hai ya chaand khila hai

E|----5-5---7-8-7-8---5-------4----5-----------------------|
B|--5------------------------------------------------------|
G|---------------------------------------------------------|
D|---------------------------------------------------------|
eaa bcbc a
Julf

g# a

ghaneri shaam hai kya

E|-----7-7-10--10-7\5-5---3----2--3-2--3-------------------|
B|---5-----------------------------------------------------|
G|---------------------------------------------------------|
D|---------------------------------------------------------|
e b b d d b\a a

g f# g f# g

Saagar jaisi aankhon waali

E|---0-5--5---7-8---7-8----5----4----5---------------------|
B|---------------------------------------------------------|
G|---------------------------------------------------------|
D|---------------------------------------------------------|
ea a bc bc a

g# a

Yeh to bata tera naam hai kya

--------------------------------------------------------------------------------

Am E Am E Am E.......

Chehraa hai ya chaand khila hai


Julf ghaneri shaam hai kya
Saagar jaisi aankhon waali
Yeh to bata tera naam hai kya
--------------------------------------------------------------------------------

E|--0----------------------------0-----0-1-0--0-1-0--0-1-0-1-0-1-0-|
B|----1---0-1----------------0-1-----------------------------------|
G|------2-----2---0-2---1--2---------------------------------------|
D|--------------3-----2--------------------------------------------|
A|-----------------------------------------------------------------|
E|-----------------------------------------------------------------|
e c a b c a f g a e g# a b c e

efe efe efefefe

-------------------------------------------------------------------------------E|-----0-0-0-----------------------------------------------|
B|------------1-1------------------------------------------|

G|-----------------2-2-----1---2--2---2--------------------|
D|----------------------------2----------------------------|
A|---------------------------------------------------------|
E|---------------------------------------------------------|
eee cc aa

g# ea a a

Are tu kya jaane teri khaatir

E|---------------------0-----------------------------------|
B|------1-0-1-------0----1--0---1--------------------------|
G|-------------2-2-----------------------------------------|
D|---------------------------------------------------------|
cbc aa b ec b c
Kitna hai betaab ye dil

E|-------0--0----------------------------------------------|
B|------------1--1---------------0---0---------------------|
G|-----------------2-----2--1--2---------------------------|
D|---------------------------------------------------------|
e ec ca

a g# a b b

Tu kya jaane dekh raha hai

E|---------------------------------------------------------|

B|------1--0-----3--0--------------------------------------|
G|-----------2------------2------1---2---------------------|
D|---------------------------------------------------------|
c ba d b

g# a

kaise kaise khwab ye dil


--------------------------------------------------------------------------------

E|----------------------------------------0-1-0--0-1-0--0-1-0-1-0-1-0-|

B|------1-0------1-0------1-0-------1-0-------------------------------|
G|----2--------2--------2---------2-----------------------------------|
D|--2--------2--------2---------2-------------------------------------|
A|--------------------------------------------------------------------|
E|--------------------------------------------------------------------|
eacb eacb eacb eacb efe efe efefefe
--------------------------------------------------------------------------------

E|---------------------------------------------------------|
B|---1-0---0-----------1--0---0----------------------------|
G|-----------2-2--2----2--------2---2-2--------------------|
D|---------------------------------------------------------|

A|---------------------------------------------------------|
E|---------------------------------------------------------|
c b b a a a ac b b a a a
Dil kahata hai tu hai yahan to

E|---------------------------------------------------------|
B|--1-0-3----------------0-0------2----2--2--2--2----------|
G|---------2-2-2--1----2----------2------------------------|
D|---------------------------------------------------------|
A|---------------------------------------------------------|
E|---------------------------------------------------------|
c b d a a a g# a b b
jaata lamha thum jaaye

ac# c# c# c# c#
waqt ka dariya

E|------------------------------0--------------------------|
B|--2--3-2---2--2--2------0-0-1-3---1-0--------------------|
G|----------------------0----------------2-2-1--1-1--------|
D|---------------------------------------------------------|
A|---------------------------------------------------------|
E|---------------------------------------------------------|
c# d c# c# c# c# g b b c de c b a a g# a a
bahte

bahte

is manjer mein jam jaaye

-------------------------------------------------------------------------------toone deewaana dil ko banaya


is dil per ilzaam haikya
saagar jaisi aankhon waali
yeh to bata tera naam hai kya.

Ho aaj main tujhse door sahi


aur tu mujhse anjaan sahi
tera saath nahin paaon to
khair tera armaan sahi

--------------------------------------------------------------------------------

E|-------7-----7----------7-----7----5--7--8--10-8---5--7--8--7--8-|
B|--5--8----8--------5--8----8-------------------------------------|
G|-----------------------------------------------------------------|
la la la la la la la la la la la la la la la la la la la la
eg b g b

e g b g b

a bc d c

a b c b c

E|--7--8-10--8-10---7--8--10--7-10------11-------11-14-12----------|
B|-------------------------------------------12--------------------|

G|-----------------------------------------------------------------|
la la la la la la la la la la

la la la la la

b c d c d

d#

b c d b d

b d# f# e

--------------------------------------------------------------------------------

E|----------------------------------------0-1-0--0-1-0--0-1-0-1-0-1-0-|
B|------1-0------1-0------1-0-------1-0-------------------------------|
G|----2--------2--------2---------2-----------------------------------|
D|--2--------2--------2---------2-------------------------------------|
A|--------------------------------------------------------------------|
E|--------------------------------------------------------------------|
eacb eacb eacb eacb efe efe efefefe

Ho ye armaan hai..
shor nahin ho
khaamoshi ke mele hoon
is duniyaan mein koi nahin ho
hum dono hee akele hoon.

tere sapne dekh raha hoon

aur mera ab kaam hai kya


saagar jaisi aankhon waali
yeh to bata tera naam hai kya,

Am E Am E am E....

Bulla Ki Jaana Main Koun


Strumming patter : DDUD,DUDDUD

|x2|
---------------------|----------------------------------------5--4-2/4-2-2/4-----|-9---7-5/7-5-5/7------9--7--5/7-5--5\4--|
-6--4-2/4-2-2/4-----|-9---8-6/8-6-6/8------9--8--6/8-6--6\5--|
---------------------|------------------------------------------------------------|------------------------------------------------------------|----------------------------------------

Bm
F#m
G
Bulla ki jaana main kaun
Bm
F#m
G
Bulla ki jaana main kaun
Bm
F#m
G
Bulla ki jaana main kaun
Bm
F#m
G

Bulla ki jaana main kaun


D
Na main moman vich maseetan
A
Na main vich kufar dian reetan
G
Na main pakan vich paleetan

D
Na main andar bed kitaban
A
Na main rehnda phaang sharaban
G
Na main rehnda mast kharaban

D
Na main shadi na ghamnaki
A
Na main vich paleetan pakeen
G
A
Na main aaabi na main khaki
D
A
C
Na main aatish na main paun
Bm
F#m
G
Bulla ki jana main kaun
Bm
F#m
G
Bulla ki jana main kaun
Bm
F#m
G
Bulla ki jana main kaun
Bm
F#m
G
Bulla ki jana main kaun

F#

Continue through the song with the previous chords and have fun.

Kabhi Kabhi Aditi Zindagi

This song involves 3 major chords

Gm - 333553
Cm - 34553X
F - 112331

The starting interlude has to be strummed as well as muted. Considering it to be a 3-beat seq
and then instead of striking on the 3rd beat, just mute the chord. That should produce the des
way, do tell me. The interlude chords are as below:
Interlude
Gm Gm Cm
Gm Gm Cm

The above steps has to be done for each instance of the chord in the interlude. Now the song
MUKHDA
Kabhi ka(Gm)bhi Aditi zinda(Gm)gi mein yuhi koi (Cm)apna lagta hai.
Kabhi ka(Gm)bhi Aditi wo bich(Gm)har jaaye to ek (Cm)sapna lagta hai.
Aise mei koi (Gm)kaise apne (Gm)aansu o ko (Cm)behne se roke?
Aur (F)kaise koi sochle every(Gm)things gonna be ok?

The first two lines of the above stanza can be played without continuous strumming i.e. by ju
Kabhi ka(Gm)bhi to lage zinda(Gm)gi mein rahi naa khu(Cm)shi aur naa mazaa.
Kabhi ka(Gm)bhi to lage har (Gm)din mushkil aur (Cm)har pal ek sazaa.
Aise mein koi (Gm)kaise musku(Gm)raye, kaise (Cm)hasde khush hoke?
Aur (F)kaise koi soch de every(Gm)thing gonna be ok?
The INTERLUDE is played again once but it is delayed by half a bar.
Gm - Cm - G
ANTRA 1
(A#)Soch jara jaane(Cm)ja tujhko hum (A#)kitna chahte hai.
(Gm)Rotein hai hum bhi a(F)gar teri ankhon mein (A#)aansu aate hai.
(Gm)Gaane to aata na(Cm)hi hai magar phir (Cm)bhi hum gaate hai(Gm).
Ke Aditi (Cm)maan kabhi, kabhi (Cm)saare jahan mein an(F)dhera hota hai;
Lekin (Cm)raat ke (Gm)baad hi to sa(F)vera hota hai(F).
MUKHDA Again
More repeat of INTERLUDE and chord progressions
ANTRA 2

(A#)Tu khush hai to la(Cm)ge ke jahan mein (A#)chhaayi hai khushi.


(Gm)Suraj nikle (F)baadlon se aur (Gm)baatein zindagi.
(Gm)Suun to jara mad(Cm)hosh hawa tujh(Cm)se kehne la(Gm)gi.
Ke Aditi (Cm)wo jo bichhad-te hai (Cm)ek na ek din (F)phir mil jaate hai;
Aditi (Cm)jaane tu ya (Gm)jaane na phool (F)phir khil jaate hai(F).
MUKHDA Again

SWEET CHILD O' MINE


As recorded by Guns N' Roses
(From the 1987 Album APPETITE FOR DESTRUCTION)
Words and Music by Guns N' Roses
Transcribed by Jake Brown

Gtr
Gtr
Gtr
Gtr
Gtr

D5II
x x 0 2 3 x

D
x x 0 2 3 2

Cadd9
x 3 2 0 3 0

3 2 0

Dsus4
x x 0 2 3 3

Dsus2
x x 0 2 3 0

A5
x 0 2 2 x x

B
x 2 4

C5
x 3 5 5 x x

D5
x 5 7 7 x x

D#5
x 6 8 8 x x

E
0 2 2

G5
3 x 0 0 3 x

G5(type 2)
3 5 5 x x x

E5
0 2 2 x x x

E5
x 7 9

B5VII
7 9 9 x x x

Bb5
6 8 8 x x x

A5V
5 7 7 x x x

I (Eb Ab Db Gb Bb Eb) - 'Untitled'


II (Eb Ab Db Gb Bb Eb) - 'Untitled'
III (Eb Ab Db Gb Bb Eb) - 'Untitled'
IV (Eb Ab Db Gb Bb Eb) - 'Untitled'
V (Eb Ab Db Gb Bb Eb) - 'Untitled'

Intro
Medium Rock Q=122
4/4
Gtr I
E E E E E E E E
E E E E E E E E
|-------------15----14----|-------------15----14----|
|----15-------------------|----15-------------------|
|-------14-12----14----14-|-------14-12----14----14-|

|-12----------------------|-12----------------------|
|-------------------------|-------------------------|
|-------------------------|-------------------------|
E E E E E E E E
E E E E E E E E
|-------------15----14----|-------------15----14----|
|----15-------------------|----15-------------------|
|-------14-12----14----14-|-------14-12----14----14-|
|-14----------------------|-14----------------------|
|-------------------------|-------------------------|
|-------------------------|-------------------------|
W
W
E E E E E E E E
E E E E E E E E
|-------------15----14----|-------------15----14----|
|----15-------------------|----15-------------------|
|-12----14-12----14----14-|-12----14-12----14----14-|
|-------------------------|-------------------------|
|-------------------------|-------------------------|
|-------------------------|-------------------------|
D5II
Gtr II
H

E
|
/

E
|
/

E
|
/

E
|
/

E
|
/

E
|
/

E
|
/

E
|
/

E
|
/

E
|
/

E
|
/

E
|
/

E E E E E E E E
E E E E E E E E
|-------------15----14----|-------------15----14-----|
|----15-------------------|----15--------------------|
|-------14-12----14----14-|-------14-12----14----14--|
|-12----------------------|-12-----------------------|
|-------------------------|--------------------------|
|-------------------------|--------------------------|
D
Gtr III
W
|
/

+W
|
/

Gtr II
Q.
E +Q.
E
E E E E +E
E E E
|--2---------2-(2)--------2-|--3p=2--2--3-(3)--2-------|
|--3---------3-(3)--------3-|--3--------3-(3)-----3----|
|--2---------2-(2)--------2-|--2--------2-(2)-----2--2-|
|--0---------0-(0)--------0-|--0---------------------0-|
|---------------------------|--------------------------|
|---------------------------|--------------------------|
|
| Gtr I

| E
E E E E
E E E
E E E E E
E E E
|--------------15-----14----|-------------15-----14----|
|-----15--------------------|----15--------------------|
|--------14-12-----14----14-|-------14-12-----14----14-|
|-12------------------------|-12-----------------------|
|---------------------------|--------------------------|
|---------------------------|--------------------------|
Cadd9
W
|
/

+W
|
/

E Q
E +H
E E E E +Q.
E
|---------------------------|---------------------------|
|-^1--3------1-(1)----------|--3--1-----1-(1)-----------|
|-^0-(0)-----0-(0)----------|--0-----0---------------0--|
|-^2-(2)-----2-(2)----------|--2------------------------|
|-^3-(3)-----3-(3)----------|--3------------------------|
|---------------------------|---------------------------|
|
| E E
E E E
E E E
E E E E E
E E E
|--------------15-----14----|-------------15-----14-----|
|----15---------------------|----15---------------------|
|--------14-12-----14----14-|-------14-12-----14----14--|
|-14------------------------|-14------------------------|
|---------------------------|---------------------------|
|---------------------------|---------------------------|
G
W
|
/

+W
|
/

>
Q
E E +H
+W
|--------------------------|--------------------------|
|--3--------0-(0)----------|-(0)----------------------|
|--0-----0--0-(0)----------|-(0)----------------------|
|--0--------0-(0)----------|-(0)----------------------|
|--2--------2-(2)----------|-(2)----------------------|
|--3--------3-(3)----------|-(3)----------------------|
|
| E E E E E
E E E
E
E E E E E E E
|-------------15-----14----|--------------15----14----|
|----15--------------------|-----15-------------------|
|-12----14-12-----14----14-|-12-----14-12----14----14-|
|--------------------------|--------------------------|
|--------------------------|--------------------------|
|--------------------------|--------------------------|
D

W
|
/

+W
|
/

<
PM------------|
Q
E E E E E E
E E E E +Q.
E
|-------------------------|--3--2--0--2-(2)--------0--|
|--3-----3--3--3--3--3--3-|--3--3--3--3-(3)--------3--|
|--2-----2--2--2--2--2--2-|--2--2--2--2-(2)--------2--|
|--0-----0--0--0--0--0--0-|--0--0--0--0-(0)--------0--|
|-------------------------|---------------------------|
|-------------------------|---------------------------|
|
| E E E E E E E E
E E E E E
E E E
|-------------15----14----|-------------15-----14-----|
|----15-------------------|----15---------------------|
|-------14-12----14----14-|-------14-12-----14----14--|
|-12----------------------|-12------------------------|
|-------------------------|---------------------------|
|-------------------------|---------------------------|
Gtr III
Q.
E Q.
E
Q.
E E
E Q
|--2---------2--2---------2-|--2--------2--3---2--0----|
|--3---------3--3---------3-|--3-----------------------|
|--2---------2--2---------2-|--2-----------------------|
|--0---------0--0---------0-|--0-----------------------|
|---------------------------|--------------------------|
|---------------------------|--------------------------|
|
| Gtr I
| Q.
E +Q.
E
E E E E +E
E E E
|--2---------2-(2)--------2-|--3p=2--2--3-(3)--2-------|
|--3---------3-(3)--------3-|--3--------3-(3)-----3----|
|--2---------2-(2)--------2-|--2--------2-(2)-----2--2-|
|--0---------0-(0)--------0-|--0---------------------0-|
|---------------------------|--------------------------|
|---------------------------|--------------------------|
|
| Gtr II
| E
E E E E
E E E
E E E E E
E E E
|--------------15-----14----|-------------15-----14----|
|-----15--------------------|----15--------------------|
|--------14-12-----14----14-|-------14-12-----14----14-|
|-12------------------------|-12-----------------------|
|---------------------------|--------------------------|
|---------------------------|--------------------------|
Q.
E Q.
E
Q.
E E
E Q
|--0---------0--0---------0-|--0---------0--3---2--0-----|
|--1---------1--1---------1-|--1-------------------------|
|--0---------0--0---------0-|--0-------------------------|

|--2---------2--2---------2-|--2-------------------------|
|--3---------3--3---------3-|--3-------------------------|
|---------------------------|----------------------------|
|
| E
Q
E +H
E
E E E +Q.
E
|---------------------------|----------------------------|
|--1---3-----1-(1)----------|--3---1-----1-(1)-----------|
|--0---------0-(0)----------|--0------0---------------0--|
|--2---------2-(2)----------|--2-------------------------|
|--3---------3-(3)----------|--3-------------------------|
|---------------------------|----------------------------|
|
| E
E E E E
E E E
E
E E E E
E E E
|--------------15-----14----|--------------15-----14-----|
|-----15--------------------|-----15---------------------|
|--------14-12-----14----14-|--------14-12-----14----14--|
|-14------------------------|-14-------------------------|
|---------------------------|----------------------------|
|---------------------------|----------------------------|
Q.
E Q.
E
Q.
E E E Q
|---------------------------|---------------3--2--0----|
|--3---------3--3---------3-|--3---------3-------------|
|--0---------0--0---------0-|--0-----------------------|
|--0---------0--0---------0-|--0-----------------------|
|--2---------2--2---------2-|--2-----------------------|
|--3---------3--3---------3-|--3-----------------------|
|
|
>
| Q
E E +H
+W
|---------------------------|--------------------------|
|--3---------0-(0)----------|-(0)----------------------|
|--0------0--0-(0)----------|-(0)----------------------|
|--0---------0-(0)----------|-(0)----------------------|
|--2---------2-(2)----------|-(2)----------------------|
|--3---------3-(3)----------|-(3)----------------------|
|
| E
E E E E
E E E
E
E E E E E E E
|--------------15-----14----|--------------15----14----|
|-----15--------------------|-----15-------------------|
|-12-----14-12-----14----14-|-12-----14-12----14----14-|
|---------------------------|--------------------------|
|---------------------------|--------------------------|
|---------------------------|--------------------------|
Q.
E Q.
E
Q.
E Q
Q
|--2---------2--2---------2-|--2---------2--3------2-----||
|--3---------3--3---------3-|--3---------3--3------3-----||
|--2---------2--2---------2-|--2---------2--2------2-----||
|--0---------0--0---------0-|--0---------0--0------0-----||
|---------------------------|----------------------------||
|---------------------------|----------------------------||
|

|
<
|
PM-------------|
| Q
E E E
E E E
E
E E E +Q.
E
|---------------------------|--3---2--0--2-(2)--------0--||
|--3------3--3--3---3--3--3-|--3---3--3--3-(3)--------3--||
|--2------2--2--2---2--2--2-|--2---2--2--2-(2)--------2--||
|--0------0--0--0---0--0--0-|--0---0--0--0-(0)--------0--||
|---------------------------|----------------------------||
|---------------------------|----------------------------||
|
| E
E E E E
E E E
E
E E E E
E E E
|-12-----------12-----14----|-15-----14----12------------||
|--------15-----------------|---------------------15-----||
|-----14----14-----14----14-|-----14----14-----14----14--||
|---------------------------|----------------------------||
|---------------------------|----------------------------||
|---------------------------|----------------------------||
1st, 2nd Verses
Gtr II
Q.
E +Q.
E
E E E E +E E E E
||----2----2-(2)---2-|---3p=2-2-3-(3)-2-----|
||o---3----3-(3)---3-|---3------3-(3)---3---|
||----2----2-(2)---2-|---2------2-(2)---2-2-|
||----0----0-(0)---0-|---0----------------0-|
||o------------------|----------------------|
||-------------------|----------------------|
|
|
W
+W
||--^10--------------|-(10)-----------------|
||o-^10--------------|-(10)-----------------|
||--^11--------------|-(11)-----------------|
||--^12--------------|-(12)-----------------|
||o------------------|----------------------|
||-------------------|----------------------|
E Q E +H
E E E E +Q.
E
|-----------------|----------------------|
|---1-3--1-(1)----|--3-1---1-(1)---------|
|---0----0-(0)----|--0---0-------------0-|
|---2----2-(2)----|--2-------------------|
|---3----3-(3)----|--3-------------------|
|-----------------|----------------------|
|
|
W
E Q
E +Q
+E
E
|-^-8-------------|-10p8-----------------|
|-^-8-------------|--------8-(8)--(8)\---|
|-^-9-------------|----------------------|
|-^10-------------|----------------------|
|-----------------|----------------------|
|-----------------|----------------------|

>

<
PM--------|
Q E E +H
+W
Q
E E E E E E
E E E E +Q.
E
|---------------|--------------------|------------------|-3-2--0-2-(2)---0
|-3----0-(0)----|-(0)----------------|-3----3-3-3-3-3-3-|-3-3--3-3-(3)---3
|-0--0-0-(0)----|-(0)----------------|-2----2-2-2-2-2-2-|-2-2--2-2-(2)---2
|-0----0-(0)----|-(0)----------------|-0----0-0-0-0-0-0-|-0-0--0-0-(0)---0
|-2----2-(2)----|-(2)----------------|------------------|----------------|-3----3-(3)----|-(3)----------------|------------------|----------------|
| W
E E E E +E E Q
H..
E
E Q.
+H
|-3-------------|--3------3-(3)------|-2--------------2-|-3p2------(2)---|-3-------------|-----3---------3----|-3--------------3-|-3--------------|-0-------------|-------0---------0--|-2--------------2-|-2--------------|-5-------------|--------------------|-0--------------0-|-0--------------|---------------|--------------------|------------------|----------------|---------------|--------------------|------------------|----------------W
Q.
E +Q.
E
E E E E +E E E E
|-2------2-(2)-----2-|-3p2-2-3-(3)-2-----|
|-3------3-(3)-----3-|-3-----3-(3)---3---|
|-2------2-(2)-----2-|-2-----2-(2)---2-2-|
|-0------0-(0)-----0-|-0---------------0-|
|--------------------|-------------------|
|--------------------|-------------------|
|
| E E E E +E E E E
E E E E E E E E
|--------0-(0)-----2-|-------2--3--2-0---|
|----3---------3-----|-3---------------3-|
|------2---------2---|---2---------------|
|-0------------------|-----0-------------|
|--------------------|-------------------|
|--------------------|-------------------|
E Q
E +H
E E E E +Q.
E
|-------------------|----------------------|
|-1-3---1-(1)-------|--3--1---1-(1)--------|
|-0-----0-(0)-------|--0----0-----------0--|
|-2-----2-(2)-------|--2-------------------|
|-3-----3-(3)-------|--3-------------------|
|-------------------|----------------------|
|
| E E E E +E E E E
+E E E E +E E E E
|-----------------0-|-(0)------------------|
|-------3-(3)-------|-----3---3-(3)--------|
|---0---------0-----|---------------0---0--|
|-----2---------2---|----------------------|
|-3-----------------|-------3---------3----|
|-------------------|----------------------|
>

<

PM--------|
Q
E E +H
+W
Q
E E E E E E
E E E E +H
|------------------|---------------------|-----------------|--3--2-0-2-(2)
|-3-----0-(0)------|-(0)-----------------|-3---3-3-3-3-3-3-|--3--3-3-3-(3)
|-0---0-0-(0)------|-(0)-----------------|-2---2-2-2-2-2-2-|--2--2-2-2-(2)
|-0-----0-(0)------|-(0)-----------------|-0---0-0-0-0-0-0-|--0--0-0-0-(0)
|-2-----2-(2)------|-(2)-----------------|-----------------|-------------|-3-----3-(3)------|-(3)-----------------|-----------------|-------------|
| E E E E E Q E
E E E E +E E E E
E E E E E Q
E
+E E Q
H
|------------------|--0------------0-----|---------------3-|-(3)--------2|-----3-------3----|-----3---3-(3)---3---|---3-----3-----3-|-(3)-3------3|-2h4---2h=4-----0-|-------0-----------0-|-----2-----2---2-|-(2)---2----2|------------------|---------------------|-0-----0---------|------------0|------------------|---------------------|-----------------|-------------|------------------|---------------------|-----------------|-------------Chorus
$
A5
Gtr II
Q
E
|
/

E +Q
| |
/ /

B5

C5

E
|
/

Q
|
/

E
|
/

E +H
| |
/ /

Gtr I
E E E E E E E E
E E E E E E E E
|-------------------------|-------------12----10----|
|-14-14-------15----14----|-13-13-------------------|
|-------14-------14----14-|-------12-10----12----12-|
|----------14-------------|-------------------------|
|-------------------------|-------------------------|
|-------------------------|-------------------------|
|
| W
W
|-------------------------|-------------------------|
|-------------------------|-------------------------|
|-------------------------|-------------------------|
|-------------------------|-------------------------|
|-------------------------|-------------------------|
|-------------------------|-------------------------|
D
Q
|
/

E
|
/

Q
|
/

E
|
/

DsusD
E
E
|
|
/
/

DsuD2
E E +H
| | |
/ / /

E
E E E E E E E
E
E
E E E E E E
|---------------15----14--------|---------------15----14------------|
|------15-----------------------|-----15----------------------------|
|---------14-12----14----14-----|---------14-12----14----14---------|
|-12----------------------------|-12--------------------------------|
|-------------------------------|-----------------------------------|

|-------------------------------|-----------------------------------|
|
| Gtr IV
| H..
E
+E +E
E E E E E S
+S
|-------------------------------|-----------------------------------|
|--7----------------------7pb8==|=(7)r(7)---------------------------|
|--7----------------------------|----------7------------------------|
|--7----------------------------|-------------7--5s=4--0------------|
|--5----------------------------|-------------------------3b3.5-(3)-|
|-------------------------------|-----------------------------------|
A5
Q
|
/

E +Q
| |
/ /

E
|
/

B5
E
|
/

C5
Q
|
/

E +H
| |
/ /

E E E E E E E E
E E E E E E E E
|-------------------------|-------------12----10----|
|-14-14-------15----14----|-13-13-------------------|
|-------14-------14----14-|-------12-10----12----12-|
|----------14-------------|-------------------------|
|-------------------------|-------------------------|
|-------------------------|-------------------------|
To Coda
&
D
W
|
/

Q.
|
/

E Q
| |
/ /

Q
|
/

E
Q.
+H
+H.
E E
|--------------------|-------------------||
|------15----(15)----|-(15)----------10--||
|-/14-(14)---(14)----|-(14)--------9-----||
|--------------------|-------------------||
|--------------------|-------------------||
|--------------------|-------------------||
Q.
E +Q.
E
E E E E +E E E E
|-2----2-(2)----2-|-3p2-2-3-(3)-2------|
|-3----3-(3)----3-|-3-----3-(3)---3----|
|-2----2-(2)----2-|-2-----2-(2)---2--2-|
|-0----0-(0)----0-|-0----------------0-|
|-----------------|--------------------|
|-----------------|--------------------|
|
| Gtr I
| Q.
E +Q.
E
Q.
E +Q.
E
|-----------------|--------------------|
|-8----7-(7)---10-|-8-----7-(7)-----10-|
|-----------------|--------------------|

|-----------------|--------------------|
|-----------------|--------------------|
|-----------------|--------------------|
E Q E +H
E E E E +Q.
E
|------------------|---------------------|
|-1--3--1-(1)------|-3--1---1-(1)--------|
|-0-----0-(0)------|-0----0----------0---|
|-2-----2-(2)------|-2-------------------|
|-3-----3-(3)------|-3-------------------|
|------------------|---------------------|
|
| Q.
E +Q.
E
Q.
E +Q.
E
|------------------|---------------------|
|-8-------------10-|-8--------------10s==|
|-------9-(9)------|--------9-(9)--------|
|------------------|---------------------|
|------------------|---------------------|
|------------------|---------------------|
1.
>
Q E E +H
+W
|--------------------------|---------------------------------------|
|-3----0-(0)---------------|-(0)-----------------------------------|
|-0--0-0-(0)---------------|-(0)-----------------------------------|
|-0----0-(0)---------------|-(0)-----------------------------------|
|-2----2-(2)---------------|-(2)-----------------------------------|
|-3----3-(3)---------------|-(3)-----------------------------------|
|
| H
+E
E
+E E
E
+E
E E
+Q
+E E
|--------------------------|------------10-10pb12==(10)r=(10)------|
|-8------(8)-10pb12r(10)-8-|-10b12-(10)----------------------------|
|--------------------------|----------------------------------9b11-|
|--------------------------|---------------------------------------|
|--------------------------|---------------------------------------|
|--------------------------|---------------------------------------|
<
PM--------|
Q
E E E E E E
E E E E +Q.
E
|------------------|--3--2-0-2-(2)---0---||
|--3---3-3-3-3-3-3-|--3--3-3-3-(3)---3--o||
|--2---2-2-2-2-2-2-|--2--2-2-2-(2)---2---||
|--0---0-0-0-0-0-0-|--0--0-0-0-(0)---0---||
|------------------|--------------------o||
|------------------|---------------------||
|
| +W
+W
|------------------|---------------------||
|------------------|--------------------o||
|-(9)--------------|-(9)-----------------||

|------------------|---------------------||
|------------------|--------------------o||
|------------------|---------------------||
2.
>
Q
E E +H
+W
|--------------------|------------------------|
|-^3------0-(0)------|-(0)--------------------|
|-^0----0-0-(0)------|-(0)--------------------|
|-^0------0-(0)------|-(0)--------------------|
|-^2------2-(2)------|-(2)--------------------|
|-^3------3-(3)------|-(3)--------------------|
|
| H..
E
H
E
+E E E
|--------------------|------------------------|
|--8--------------10s|==8-----7pb8r(7)---7b8==|
|--------------------|-----------------7------|
|--------------------|------------------------|
|--------------------|------------------------|
|--------------------|------------------------|
<
PM-----------|
Q
E E E
E E E
E E E E +Q.
E
|-----------------------|--3--2-0-2-(2)-----0--|
|--3---3-3--3---3-3--3--|--3--3-3-3-(3)-----3--|
|--2---2-2--2---2-2--2--|--2--2-2-2-(2)-----2--|
|--0---0-0--0---0-0--0--|--0--0-0-0-(0)-----0--|
|-----------------------|----------------------|
|-----------------------|----------------------|
|
| +H
+E
E E +E
+H.
E E
|--------------10-------|----------------------|
|-(7)------(7)----7r(7)-|-(7)------------x-10--|
|-----------------------|----------------------|
|-----------------------|----------------------|
|-----------------------|----------------------|
|-----------------------|----------------------|
Q.
E +Q.
E
E E E
E
+E
E E E
|-2----2-(2)----2-|-3p2-2---3-----(3)--2------|
|-3----3-(3)----3-|-3-------3-----(3)----3----|
|-2----2-(2)----2-|-2-------2-----(2)----2--2-|
|-0----0-(0)----0-|-0-----------------------0-|
|-----------------|---------------------------|
|-----------------|---------------------------|
|
| Q.
E +Q.
E
Q
E
E
+E
Q
E
|-----------------|-------------------10---10s|
|-8----7-(7)---10-|-8---7-/10b12-(10)---------|
|-----------------|---------------------------|

|-----------------|---------------------------|
|-----------------|---------------------------|
|-----------------|---------------------------|
E Q
E +H
E E E E +Q.
E
|---------------------|---------------------------|
|-1--3----1--(1)------|--3-1-----1--(1)-----------|
|-0-------0--(0)------|--0----0------------0------|
|-2-------2--(2)------|--2------------------------|
|-3-------3--(3)------|--3------------------------|
|---------------------|---------------------------|
|
| Q.
E +Q.
E
Q
E E +E Q E
|-8-----/12-(12)---12-|-12s==10-10-(10)s8--7pb8r==|
|---------------------|---------------------------|
|---------------------|---------------------------|
|---------------------|---------------------------|
|---------------------|---------------------------|
|---------------------|---------------------------|
>
Q
E E +H
+W
|-----------------------------|-----------------------------------|
|--3-----0-(0)----------------|-(0)-------------------------------|
|--0---0-0-(0)----------------|-(0)-------------------------------|
|--0-----0-(0)----------------|-(0)-------------------------------|
|--2-----2-(2)----------------|-(2)-------------------------------|
|--3-----3-(3)----------------|-(3)-------------------------------|
|
|
~~~~~~
| +Q
E E +Q
S
+S E
Q
E E
+Q
+E
E
|-(7)-------------------------|--------10-10b12==(10)r=(10)-------|
|------8--------10pb12r(10)p8-|-10b12-----------------------17b19-|
|--------7-(7)----------------|-----------------------------------|
|-----------------------------|-----------------------------------|
|-----------------------------|-----------------------------------|
|-----------------------------|-----------------------------------|
D.S. al Coda
$
<
PM-----------|
Q
E E
E E E E
E E E E +H
|--------------------------|---3--2-0-2-(2)----||
|---3-------3-3---3--3-3-3-|---3--3-3-3-(3)----||
|---2-------2-2---2--2-2-2-|---2--2-2-2-(2)----||
|---0-------0-0---0--0-0-0-|---0--0-0-0-(0)----||
|--------------------------|-------------------||
|--------------------------|-------------------||
|
| +E
Q.
+H
+W
|-------17------(17)-------|-(17)--------------||

|-(17)-(17)-----(17)-------|-(17)--------------||
|--------------------------|-------------------||
|--------------------------|-------------------||
|--------------------------|-------------------||
|--------------------------|-------------------||
&
D
Gtrs I, II
|-3-| |-3-|
Q Q Q Q Q Q
| | | | | |
/ / / / / /

A5
Q
|
/

B5
E E +Q
| |
/ /

E E
| |
/ /

C5
Q
|
/

D
E E +H
| |
/ /

Q
|
/

E E Q
| |
/ /

E E
|
/

W
W
W
W
|---------------|----------------|--------------|----------------|
|---------------|----------------|--------------|----------------|
|---------------|----------------|--------------|----------------|
|---------------|----------------|--------------|----------------|
|---------------|----------------|--------------|----------------|
|---------------|----------------|--------------|----------------|
DsDsDsDs2
E E E E +H
| | | | |
/ / / / /

A5
Q E E +Q
|
| |
/
/ /

B5
E E
| |
/ /

C5
Q E E +H
|
| |
/
/ /

W
W
W
|---------------|----------------|--------------|
|---------------|----------------|--------------|
|---------------|----------------|--------------|
|---------------|----------------|--------------|
|---------------|----------------|--------------|
|---------------|----------------|--------------|
D5
E E E E E E E E
| | | | | | | |
/ / / / / / / /

E E E E Q
| | | | |
/ / / / /

D#5
Q
|
/

W
W
|-----------------|-----------------||
|-----------------|-----------------||
|-----------------|-----------------||
|-----------------|-----------------||
|-----------------|-----------------||
|-----------------|-----------------||
Guitar Solo
Gtr I
~~~~~~

~~~~~~~

H.
+E
E
Q
S S E +Q.
E
|-17b19============(17)r-15-|-14h==15p14-------------15-|
|---------------------------|------------17-(17)--------|
|---------------------------|---------------------------|
|---------------------------|---------------------------|
|---------------------------|---------------------------|
|---------------------------|---------------------------|
|
| Gtr II
| E
E E E E E
E
E
E E E
E
E E E E
|------------0--------------|-------------3-------------|
|----------0---0------------|-------1---------1---------|
|--------0-------0--------0-|----0---------------0----0-|
|--------------------2------|--2-------------------2----|
|---------------------------|---------------------------|
|--0------------------------|---------------------------|

|----3-----|
E.
S S S E +Q
q
q
E
+E
E E
+E
E E E
|-14h==15p14--------------12---14---|------------------------------------|------------17-16-(16)-------------|-15pb17r(15)-12---------------------|-----------------------------------|----------------14pb16r(14)-12-11h12|-----------------------------------|------------------------------------|-----------------------------------|------------------------------------|-----------------------------------|------------------------------------|
| E E
E
E
E E
E
E
E
E
E E
E
E E E
|----------------2------------------|-----------------0------------------|----------0---------0--------------|-------------------------1----------|----2------------------2---------2-|--------------2--------------2------|--1-------------------------1------|----------2-------------------------|-----------------------------------|--0---------------------------------|-----------------------------------|--------------------------------3--2~~~

~~~~~~~
|---3----| |---3---|
|--3---|
Q.
E +E
E
E E E
E
+Q
+S
S S E +E
Q.
|------------------------------------|-----------------------------------|----------------------------13---12-|-(12)---(12)h13p12s10-(10)-13b15---|-----------------11---12-14---------|-----------------------------------|-14------14-(14)--------------------|-----------------------------------|------------------------------------|-----------------------------------|------------------------------------|-----------------------------------|
| E E E E
E
E
E
E
E E
E
E
E
E
E E
|----------0-------------------------|--------------------3--------------|-------0------0---------------------|----------1-------------1----------|-----0--------------0----------0----|------0---------------------0------0
|--------------------------2---------|---2-----------------------------2-|------------------------------------|-----------------------------------|--0---------------------------------|------------------------------------

~~~~
Q
e E +Q.
E
+Q
E E
+E
+E
E S
+S
|---------------------------|-----------15b17==(15)r(15)\---------------|
|-13---12-12-(12)-----12b13r|=(12)--------------------------7b8==(7)r===|
|---------------------------|--------14---------------------------------|
|---------------------------|-------------------------------------------|
|---------------------------|-------------------------------------------|
|---------------------------|-------------------------------------------|
|
| E E E E
E E E E
E E E E
E
E
E E
|----------2----------------|------------0------------------------------|
|-------0------0------------|--------------------1----------------------|
|----2------------2----2----|---------2---------------2-----------------|
|--1----------------1-------|------2------------------------------------|
|---------------------------|---0---------------------------------------|
|---------------------------|-----------------------------3-2-----------|
~~~~~~
~~~~~~
+Q
E E +Q.
S
+S
+Q
E E +E Q.
|----------------------------|-----------------------|
|-(7)---------------7b8==(7)r|=(7)-------------------|
|-------9-9-(9)--------------|-------9-9-(9)-8b9-----|
|----------------------------|-----------------------|
|----------------------------|-----------------------|
|----------------------------|-----------------------|
|
| E E E E E E E E
E E E E E E
E E
|---------0------------------|---------3-------------|
|-------0----0---------------|-------1----1----------|
|-----0---------0---0--------|-----0---------0-----0-|
|-----------------2----------|--2----------------2---|
|----------------------------|-----------------------|
|--0-------------------------|-----------------------|
~~
Q.
E +Q.
E
+Q
E E
+E Q
E
|-------------------------|-------------------------|
|-------------------------|-------------------------|
|-8s====11-(11)-----11b12r|=(11)---9----------------|
|-------------------------|----------9b10-(9)-7---9-|
|-------------------------|-------------------------|
|-------------------------|-------------------------|
|
| E E E E
E E E E
E E E E
E E E E
|--------2----------------|----------0--------------|
|-----0------0------------|----------------1--------|
|---2-----------2----2----|--------2----------2-----|
|-1---------------1-------|------2------------------|
|-------------------------|---0---------------------|
|-------------------------|---------------------3-2-|
Gtr V

W
W
W
~~~
~~~~~~~~~~~~~
H..
S S
Q.
E +E Q.
Q.
E +E Q.
|---------------------|----------------------|---------------------------|-----------------7h8p|=7--------------------|---------------------------|-9-------------------|--------9-(9)-8b9-----|-8------/11-(11)-9b11------|---------------------|----------------------|---------------------------|---------------------|----------------------|---------------------------|---------------------|----------------------|---------------------------|
| Gtr IV
| W
W
H
Q
E S S
|---------------------|----------------------|---------------------------|---------------------|----------------------|---------------------------|---------------------|----------------------|------------------------8-9|---------------------|----------------------|---------------------------|---------------------|----------------------|---------------------------|---------------------|----------------------|---------------------------|
| Gtr II
| E
E E E E E E E
E E E E E E
E E
E E E
E
E E
E E
|-------0-------------|------3---------------|------2--------------------|-----0---0-----------|----1---1-------------|----0-----0----------------|-0---------0---0-----|-0---------0------0---|-2------------2-------2----|-------------2---2---|--------------2-----1-|-----------------1---------|---------------------|----------------------|------------------------0--|---------------------|----------------------|---------------------------A5
E
|
/

E
|
/

E
|
/

E
|
/

E
|
/

E
|
/

E
|
/

E
|
/

~~~~
W
|-------------------------------------------------|
|-------------------------------------------------|
|-9-----------------------------------------------|
|-------------------------------------------------|
|-------------------------------------------------|
|-------------------------------------------------|
|
| S
+S S S S
S S S S S S S S S S S
|-------------------7-8p7-11p7-8-11-12s14-11-12---|
|-7b8r(7)---7-10b12-------------------------------|
|---------9---------------------------------------|
|-------------------------------------------------|
|-------------------------------------------------|
|-------------------------------------------------|
|
| E
E
E
E
E
E
E
E
|---------------------0---------------------------|
|--------------------------1----------------------|
|--------------2---------------2-----------2------|

|---------2--------------------------2------------|
|-0-----------------------------------------------|
|-------------------------------------------------|

E
|
/

E
|
/

E
|
/

E
|
/

E
|
/

E
|
o

E
|
o

Em
Gtr V
Q.
|
/

E
|
/

E +Q
| |
/ /

Gtr IV
~~~
~~~~~~~~~~
+W
Q
Q
Q
|----------------------------------------------------||------------------|----------------------------------------------------||-15b17--15b17---15b
|-(9)------------------------------------------------||------------------|----------------------------------------------------||------------------|----------------------------------------------------||------------------|----------------------------------------------------||------------------|
|
|--3--|
| S S S S S S S S S S S S S S S E
W
|-14s15-12-14-15p14-12----14p11-12h14p12----17-------||------------------|----------------------15----------------15----15b17-||------------------|----------------------------------------------------||------------------|----------------------------------------------------||------------------|----------------------------------------------------||------------------|----------------------------------------------------||------------------|
| E
E
E
E
E
E
E
E
W
|--------------------0-------------------------------||------------------|--------------------------1-------------------------||------------------|--------------2-----------------2-------------------||------------------|--------2-------------------------------------------||------------------|--0-------------------------------------------------||------------------|-----------------------------------------3-----2----||------------------G5
G5(type 2)
Q.
E.
|
|
/
/
Q

A5

B5

E +Q

Q.

E +Q

S
|
/
~~~~~
H

+S

~~~~~
H

Q
a
+S
E
|-------------------------------------|---------------------------------|-------|
|-15b17--15b17-------15b17r(15)p12----|-17b19--17b19-------17b19--------|17b19r(17)p15|

|----------------------------------14-|--------------------17b18---(17)-|-------|
|-------------------------------------|---------------------------------|-------|
|-------------------------------------|---------------------------------|-------|
|-------------------------------------|---------------------------------|-------|
|
| W
W
|-------------------------------------|---------------------------------|-------|
|-------------------------------------|---------------------------------|-------|
|-------------------------------------|---------------------------------|-------|
|-------------------------------------|---------------------------------|-------|
|-------------------------------------|---------------------------------|-------|
|-------------------------------------|---------------------------------|-------|
|
| W
W
|-------------------------------------|---------------------------------|-------|
|-------------------------------------|---------------------------------|-------|
|-------------------------------------|---------------------------------|-------|
|-------------------------------------|---------------------------------|-------|
|-------------------------------------|---------------------------------|-------|
|-------------------------------------|---------------------------------|-------|
Em
Q.
|
/

E
|
/

+Q
|
/

E
|
o

E
|
o

G5
Q.
|
/

E
|
/

+Q
|
/

Q
|
/

~~~
~~~
~~
a Q.
E
+E
E E E
E
+S
S E.
S Q
E E
|---------------------12-------|-------------------------------------|
|-15h17----15b17-(15)----15-12-|-------------------------------------|
|------------------------------|-14b15r(14)p12-14----12-14--12-14b16-|
|------------------------------|-------------------------------------|
|------------------------------|-------------------------------------|
|------------------------------|-------------------------------------|
A5
D5

B5
G5(type 2)

C5

Q.

E +Q

Q
|

|
/

E.
/

+E
E E E S
+S
S S +S
S S
+S
S S
+S
S S
S S S S S
|--------------------------15-----------------------|-15------------15---------------|
|--------------------------15------------15----(15)-|-15------------15---------------|
|(14)-12-14-12-14b16==(14)----14r(14)-12-14b16-(14)-|----14b16-(14)----14b
---14p12-x-x|
|---------------------------------------------------|--------------------14-------x-x|
|---------------------------------------------------|--------------------------------|
|---------------------------------------------------|--------------------------------|
Em
Q.
|
/

E
|
/

+Q
|
/

E
|
o

G5
Q.
|
/

E
|
o

E
|
/

+Q
|
/

~~~~~~~~~~~
~~~~~~~
E.
+S
S S E +E S S S S S S
E.
+S
S S E +E
|--------------------------------------------|---------------------------|--------------------------------------------|---------------------------|-12b12.5-(12)-------------------12h14p12----|-12b12.5-(12)--------------|--------------14p12-14-(14)-x-x----------14-|--------------14p12-14-(14)|--------------------------------------------|---------------------------|--------------------------------------------|---------------------------A5
Q.
|
/

E
|
/

+Q
|
/

B5
E
|
/

E
|
/

S
S S S S S S S S S S S S S E
|-----------------------------------------------|
|--------------------------12-12-------15-15p12-|
|-12--12-------14-14p12-14-------14p12----------|
|--------14p12----------------------------------|
|-----------------------------------------------|
|-----------------------------------------------|
C5
Q
|

Q
|

D5
Q
|

G5(type 2)
E.
|

S
|

Em
Q.
|

E
|

|--3---|
|--33--|
S S S S S S E e e S
S S S S
S
S S S E
S S
S S
|-12-12-------15-15p12-15-14-----12h15p12----|-------12-------------12--------|
|-------15p12----------------15-----------15-|-15b17----15p12----------15p
15p12-|
|--------------------------------------------|----------------14b16-----------|
|--------------------------------------------|--------------------------------|
|--------------------------------------------|--------------------------------|
|--------------------------------------------|--------------------------------|
G5
Q.
|
/

E
|
/

+Q
|
/

Q
|
/

|--3--|
|--3--|
|--3--| |------6-------|
E
S S S E
S S S E
S S S S S S S S S
|-------12-------------12-------------12-------------12-------15b17-|
|-15b17----15p12----------15p12-15b17----15p12----12----15p12-------|
|----------------14b16-------------------------14-------------------|
|-------------------------------------------------------------------|
|-------------------------------------------------------------------|
|-------------------------------------------------------------------|
A5
Q.
|
/

E
|
/

+Q
|
/

E
|
/

B5
E
|
/

~~~
|--3--|
+Q.
+E
+S
E. S S S S S
|-(15)b18---(15)-(15)-15--12h15p12----12-|
|----------------------------------15----|
|----------------------------------------|
|----------------------------------------|
|----------------------------------------|
|----------------------------------------|
C5
Q
|
/

D5
Q
|
/

Q
|
/

G5(type 2)
E.
|
/

S
|
/

|----3-----|
|--3---|
|---3----|
S
S S S S
+S
S E
+S
S E
+S
S S
S
S
S
|-------12---------------------------------------------------------------|-15b17----15p12--------------------------15-----------------------------|----------------14b16r(14)p12-14b16-(14)----14b16r(14)p12----(14)p12----|----------------------------------------------------------14-----------14
|------------------------------------------------------------------------|------------------------------------------------------------------------Outro
E5
Q E E +H
|
| |
/
/ /

G5
Q E E +Q
|
| |
/
/ /

+Q
|
/

H
Q
Q
W
|------------------|----------------|
|------------------|----------------|
|-12s=====(2)/-----|----------------|
|------------------|----------------|
|------------------|----------------|
|------------------|----------------|
A5
Q
|
/

E +Q
| |
/ /

+Q
|
/

C5
E E E
| |
/ x

D5 G5(type 2)
E E E Q
| | | |
/ / x /

PM-|
E S S S S E H
Q
S
S E Q
E E
|---x-x-----x---------|---------------------x--|
|---x-x-----x---------|---------------------x--|
|---------------------|------------------------|
|---------------------|-----<4>-<4>------------|
|-------x-x-----------|------------------------|
|-------x-x-----------|------------------------|
E5
Q
|
/

E E +H
| |
/ /

G5
Q E E +Q
|
| |
/
/ /

+Q
|
/

A5
Q E E +Q
|
| |
/
/ /

+Q
|
/

C5
D5
E E E E E E
| | | | |
/ x / / x

G5(ty
Q
|
/

~~
PM
a Q.
E H
H
E E E E
W
H
Q
E S S
|-----------------|-----------x-----x-|----------------|-------------x---|---------7-------|-----------x-----x-|----------------|-------------x---|-7h9-------------|-----------x-<7>-x-|----------------|---------------x-x
|-----------------|-------------------|----------------|---------------x-x
|-----------------|-------------------|----------------|-----------------|-----------------|-------------------|----------------|------------------

E5
Q
|
/

G5
Q
|
/

E E +H
| |
/ /

E +Q
| |
/ /

A5
Q E E +Q
|
| |
/
/ /

+Q
|
/

+Q
|
/

S S E Q
Q E S S
S S S S S S E H
H
Q
E e
|---------------------|-----------------------|-----------------|
|---------------------|-----------------------|-----------------|
|-2p0-------------x-x-|-----------------------|---------------7-|
|-----------------x-x-|-7p5-------------------|-----------------|
|---------------------|-----7p5---------------|-----------------|
|---------------------|---------7p5S3---------|-----------------|
C5
E
|
/

E
|
x

E
|
/

D5
E
|
/

G5(type 2)
Q
|
/

E
|
x

|----6----| |----6----| |----6----| |----6----|


S S S S S S S S S S S S S S S S S S S S S S S S
|-------------------------------------------------|
|-------------------------------------------------|
|-7h9p7h9p7h9-7h9p7h9p7h9-7h9p7h9p7h9-7h9p7h9p7h9-|
|-------------------------------------------------|
|-------------------------------------------------|
|-------------------------------------------------|
E5
E
|
/

E
|
/

E
|
/

E E E E E
| | | | |
/ / / / /

E.
+S
+Q
H
|----------------------------------|
|-12----(12)b12.5-(12)\------------|
|-12----(12)b12.5-(12)\------------|
|----------------------------------|
|----------------------------------|
|----------------------------------|
G5
E E E E E E E E
| | | | | | | |
/ / / / / / / /

A5
E
|
/

E
|
/

E
|
/

E
|
/

E
|
/

E
|
/

E E
| |
/ /

~~~
W
E
+E
E a
+E
+E
Q.
|-----------------|-----------------------------------------|
|-----------------|-15pb17r(15)-12--------------------------|
|-----------------|----------------14pb16r(14)-(14)-12------|
|-----------------|-----------------------------------------|

|-----------------|-----------------------------------------|
|-----------------|-----------------------------------------|

E
|
x

C5
D5
E E E
E
| | |
|
/ / /
/

E
|
x

G5(type 2)
Q
|
/

E5
Q.
|
/

E
|
/

+Q
|
/

E
|
o

E
|
o

|---3----|
E e Q
E e E E
+H
+Q
q
q
|----------------------22b24==|=(22)-----(22)-22---22-----|
|-----17---------17-17--------|---------------------------|
|-/18--------/18--------------|---------------------------|
|-----------------------------|---------------------------|
|-----------------------------|---------------------------|
|-----------------------------|---------------------------|
G5
Q.
|
/

E
|
/

+Q
|
/

A5
Q.
|
/

Q
|
/

E +Q
| |
/ /

B5
E
|
/

E
|
/

~~~~~
|--3---|
|-----3-----|
|------3------|
Q
Q Q
+H
q
Q
+Q
Q
+Q
Q
|-22--22-22---(22)r-----|-----17pb19r(17)---17pb19r(17)---17pb19---|
|-----------------------|-17---------------------------------------|
|-----------------------|------------------------------------------|
|-----------------------|------------------------------------------|
|-----------------------|------------------------------------------|
|-----------------------|------------------------------------------|
C5
E
|
/

D5
E
|
/

Q
|
/

G5(type 2)
Q
|
/

Q
|
/

~~
Q
+Q
+E
+S
S E E
|-17b19r==(17)b19===(17)r(17)p15--------|
|--------------------------------17-17--|
|---------------------------------------|
|---------------------------------------|
|---------------------------------------|
|---------------------------------------|
E5
Q.
|
/

E
|
/

+Q
|
/

E
|
o

E
|
o

G5
Q.
|
/

E
|
/

+Q
|
/

|---3---|
|-----5-----| |------5------| |-----5
Q
Q
+Q
e e
e
S S S S S S S S
S S S S S
|--------------------12---------|-------------12-------12------------12--|-17\--15b17---(15)-----15p==12-|-15p12h14p12----15p12------15p12-------15
|-------------------------------|---------------------------------14-----|-------------------------------|----------------------------------------|-------------------------------|----------------------------------------|-------------------------------|----------------------------------------A5
Q.
|
/

E
|
/

+Q
|
/

E
|
/

B5
E
|
/

|-----5-----| |------5------| |-----5-----| |--3--|


S S S S S S S S
S S S S S S S S S S E
|----------12----------12------------12----------12---------------|
|-15p12-------15p12---------15p12-------15p12-------15p12---------|
|-------14----------14------------14----------14----------14b16r==|
|-----------------------------------------------------------------|
|-----------------------------------------------------------------|
|-----------------------------------------------------------------|
C5

D5
E
|
/

E
|
/

Q
|
/

Q
|
/

G5(type 2)
Q
|
/

+S
S E
+S
+S
+S
+S
+S E S S S
E
|-----------------------------------------------------------------|
|---------15b17==(15)r(15)b17==(15)r(15)b17-(15)---15p12----------|
|-(14)p12------------------------------------------------14b16-14-|
|-----------------------------------------------------------------|
|-----------------------------------------------------------------|
|-----------------------------------------------------------------|
E5
Q.
|
/

E +Q
| |
/ /

E
|
o

E
|
o

G5
Q.
|
/

E +Q
| |
/ /

Q
|
/

~~~
|----3-----|
|--3--|
+H.
+S
S S
+S
S
E S S
+E
E E E E E
|---------------------------------------|--------------------------------|----------------------15---------------|--------------------------------|-(14)b16---------(14)----14b16r(14)-12-|-14----14b16r(14)p12-14-14-12---|---------------------------------------|------------------------------14|---------------------------------------|--------------------------------|---------------------------------------|---------------------------------

A5
Q.
|
/

E
|
/

+Q
|
/

B5
E
|
/

E
|
/

E
+E
E E
+E
E E E
|------------12------------12-------|
|-15b16-(15)----15b17-(15)----15p12-|
|-----------------------------------|
|-----------------------------------|
|-----------------------------------|
|-----------------------------------|
E5VII D5 B5VBb5
A5VG5(tyE5 2)
|---3----| |---3----|
Q
Q Q Q
Q Q
Q.
|
| | |
| |
|
/
/ / /
/ /
/

E
|
/

+Q
|
/

E E
| |
o o

~~
|---3----| |---3----|
Q
Q Q Q
Q Q
Q
+E
E
+E
E Q
|-------------------------|-----------------------------------|
|-15b17-15-12-------------|-----------------------------------|
|-------------14b15-14-12-|-14pb15r=(14)-14pb15==(14)-14-14---|
|-------------------------|-----------------------------------|
|-------------------------|-----------------------------------|
|-------------------------|-----------------------------------|
G5
Q.
|
/

A5
E +Q
| |
/ /

Q
|
/

C5
H
|
/

W
|
/

D5
H
|
/

~~~~~~~~~
~~~~~~~~~~~~~~
~~
|--3---|
Q
Q Q
Q.
E
W
Q.
E Q.
E
|-----------------------|------------|-----------------|
|-----------------------|------------|-----------------|
|-14--14-14---14r\------|------------|-----------------|
|---------------------x-|-/14s=======|=9----9s5--------|
|-----------------------|------------|-------------10s=|
|-----------------------|------------|-----------------|
E5
W
|
/

+W
|
/

+H
|
/

\0.5/
H

~~~
H

Q.

+E

+Q

+Q

+W

|-----------|-----------------|--------------------|--------*|
|-----------|-----------------|--------------------|--------*|
|-----------|-----------------|--------------------|--------*|
|-----------|-----------------|--------------------|--------*|
|-7s===2----|-----------------|--------------------|--------*|
|-----------|-/5s===3b4---(3)p|==0----(0)-----(0)--|-(0)----*|

Duration Legend
--------------W - whole; H - half; Q - quarter; E - 8th; S - 16th; T - 32nd; X - 64th; a
+ - note tied to previous; . - note dotted; .. - note double dotted
Uncapitalized letters represent notes that are staccato (1/2 duration)
Irregular groupings are notated above the duration line
Duration letters will always appear directly above the note/fret number it
duration for. Duration letters with no fret number below them represent r
bar rests are notated in the form Wxn, where n is the number of bars to re
melody durations appear below the staff
Tablature Legend
---------------h
- hammer-on
p
- pull-off
b
- bend
pb - pre-bend
r
- bend release (if no number after the r, then release immediately)
/\ - slide into or out of (from/to "nowhere")
s
- legato slide
S
- shift slide
<n> - natural harmonic
[n] - artificial harmonic
n(n) - tapped harmonic
~
- vibrato
tr - trill
T
- tap
TP - trem. picking
PM - palm muting
\n/ - tremolo bar dip; n = amount to dip
\n - tremolo bar down
n/ - tremolo bar up
/n\ - tremolo bar inverted dip
=
- hold bend; also acts as connecting device for hammers/pulls
<> - volume swell (louder/softer)
x
- on rhythm slash represents muted slash
o
- on rhythm slash represents single note slash
Misc Legend
----------| - bar
|| - double bar
||o - repeat start
o|| - repeat end
*| - double bar (ending)
: - bar (freetime)
$ - Segno

& - Coda
Tempo markers - <E/E./Q/Q./H/H.> = BPM(8/16=s8/s16), where s8 = swing 8ths

artist:Eric Clapton
title: Tearing
album: August

us apart

INTRO
riff 1
e|--------------|------------------------------------------|
B|--------------|*--7--5-----7-------------5b----5b-------*|
G|--------------|---7--5--7--7-------------5b----5b--------|
D|-------5~--7--|---------7---------5--7------7-------5--7-|
A|--/7~---------|*-----------------7-----------------7----*|
E|--------------|---------play-this-riff-4-times-----------|
riff 2
|--------------------------------------------------------|
|*-------------------------------------------------------|
|--12/14--14--14\12--10--12/14----12/14--14--14\12--10---|
|--------------------------------------------------------|
|*-------------------------------------------------------|
|--------------------------------------------------------|

|-------------------------------------------------------|
|------------------12brp10------10b------10b---play----*|
|--12\14~--10------12brp10------10b------10b---this-----|
|-------------14~-----------12-------12--------riff-----|
|----------------------------------------------twice---*|
|-------------------------------------------------------|
play riff 1 8 times with verse
chorus
|--------------------|-------------------------------------|
|*-12brp10--12--10b-*|---12p10--12~---12p10--12----12--10b-|
|--12brp10--12--10b--|---12p10--12~---12p10--12----12--10b-|
|--------------------|--------------------------12---------|

|*------------------*|-------------------------------------|
|---play-3-times-----|-------------------------------------|
riff 2 twice again
riff 1 for second verse
chorus
now there's kind of a breakdown
|--------------------------------------|
|*------------------------------------*|
|-----------------5b-------------------|
|--7--5----5-7-7b-----7--5----5--7-7b--|
|*------5------------------7----------*|
|--------------------------------------|

|------------------------------5---|
|------------------------------5---|
|-----------------5b-----------5---|
|--7--5---5--7-7b-----7brp5--------|
|-------5--------------------7-----|
|----------------------------------|
riff 1 over slide solo
chorus
riff 2 w/ outro slide solo
key
--------------------------------| h - hammer on
|
| p - pull off
|
| b - bend string up
|
| r - release bend
|
| / - slide up
|
| \ - slide down
|
| ~ - vibrato
|
| t - tap (with strumming hand)|
| x - muted, struck string
|
--------------------------------*tabbed by seth risner a.k.a. stratpicker1

Another Day in Paradise


DDU DD | DD | DD

Em
D
She calls out to the man on the street
Em
D
"Sir, can you help me?
Em
D
Am
It's cold and I've nowhere to sleep,
Em
D
Is there somewhere you can tell me?"

Am

Em
D
Am
He walks on, doesn't look back
Em
D
He pretends he can't hear her
Em
D
Starts to whistle as he crosses the street
Em
D
She's embarrassed to be there

Am

Em
D
Cmaj7
Oh, think twice, 'cause it's another day for
D
You and me in paradise
Em
D
Cmaj7
Oh, think twice, 'cause it's another day for you,
D
Em
D C Em
You and me in paradise
Em
D
Am
She calls out to the man on the street
Em
D
He can see she's been crying
Em
D
She's got blisters on the soles of her feet
Em
D
She can't walk but she's trying
Em
D
Cmaj7
Oh, think twice, 'cause it's another day for
D
You and me in paradise
Em
D
Cmaj7
Oh, think twice, 'cause it's another day for you,
D
Em
D C Em

Am

You and me in paradise


Em
D
You can tell from the lines on her face
Em
D
You can see that she's been there
Em
Probably been moved on from every place
Em
D
But she didn't fit in there

Am

Am

Em
D
Cmaj7
Oh, think twice, 'cause it's another day for
D
You and me in paradise
Em
D
Cmaj7
Oh, think twice, 'cause it's another day for you,
D
Em
D C Em
You and me in paradise
Cmaj7
It's just another day for you and me in paradise
Cmaj7
D
Em
It's just another day for you, you and me in paradise

As Long As You Love Me


F C Am G (x2)
VERSE 1:
Am

All the loneliness has always been a friend of mine


G
C

D
D

Em

I'm leaving my life in your hand


Am
F
People say I'm crazy and that I am blind
G
C
Risking it all on a chance
VERSE 2:
Am

How you got me blind is still a mystery


G
C
I can't get you out of my head
Am
F
Don't care what is written in your history
G
C
As long as you're here with me
CHORUS:

I don't care who you are, where you're from


Am
G
What you did, as long as you love me
F
C
Who you are, where you're from,
Am
G
Don't care what you did as long as you love me
VERSE 3:
Am

Every little thing that you have said and done


G
C
Feels like it's deep within me

Am
F
Doesn't really matter if you're on the run
G
C
It seems like we're meant to be

CHORUS
BRIDGE:
Am

I try to hide it so that no one knows


F
F
G
Am
But I guess it shows when you look into my eyes
C
What you did and where you're coming from (I don't care)
F
G
As long as you love me
F C Am G
CHORUS (x2)

All Chords

A
A
A
A
A
A #5
A #5

or
or
or
or
or
or
or

Amaj
Amaj
Amaj
Amaj
Amaj
Aaug
Aaug

[0
[0
[5
[x
[x
[x
[x

0
4
7
0
4
0
0

2
x
7
2
7
3
x

2
2
6
2
x
2
2

2
5
5
2
x
2
2

0]
0]
5]
0]
5]
1]
1]

(Db
(Db
(Db
(Db
(Db
(Db
(Db

E
E
E
E
E
F
F

A)
A)
A)
A)
A)
A)
A)

:
:
:
:
:
:
:

major triad
major triad
major triad
major triad
major triad
augmented triad
augmented triad

A/Ab
A/B
A/B
A/D
A/D
A/D
A/D
A/G
A/G
A/G
A/Gb
A/Gb
A/Gb
A/Gb
A/Gb
A5
A5
A5
A6
A6
A6
A6
A6
A6/7
A6/7 sus
A6/7 sus
A7
A7
A7
A7(#5)
A7/add11
A7sus4
A7sus4
A7sus4
A7sus4
A7sus4
Aadd9
Aadd9
Aaug/D
Aaug/G
Ab
Ab #5
Ab/A
Ab/F
Ab/F
Ab/Gb
Ab/Gb
Ab5
Ab6
Ab6
Ab7
Ab7
Abdim/E
Abdim/E
Abdim/E

or
or
or

or
or
or
or
or
or

or
or
or
or

or
or
or

[x
[0
[x
[x
[x
[x
[x
[3
[x
[x
[0
[0
[2
[x
[x
A(no 3rd) [5
A(no 3rd) [x
A(no 3rd) [5
[0
[0
[2
[x
[x
[0
A6/7 sus4 [5
A6/7 sus4 [x
Adom 7
[3
Adom 7
[x
Adom 7
[x
[1
A7/11
[x
[x
[x
[x
[5
[x
A2
[0
A2
[x
[x
[1
Abmaj
[4
Abaug
[x
[x
[x
[x
[x
[x
Ab(no 3rd)[4
[x
[x
Abdom 7
[x
Abdom 7
[x
[0
[0
[x

0
0
0
0
x
x
x
x
0
0
0
x
x
0
x
7
0
7
0
x
x
0
x
0
5
0
x
0
0
0
0
0
0
0
x
0
0
0
x
0
6
3
x
8
x
x
x
6
8
x
x
x
2
2
2

2 1 2 0] (Db E Ab A) : major triad (altered


2 4 2 0] (Db E A B) : major triad (altered
7 6 0 0] (Db E A B) : major triad (altered
0 2 2 0] (Db D E A) : major triad (altered
0 2 2 0] (Db D E A) : major triad (altered
0 6 5 5] (Db D E A) : major triad (altered
0 9 10 9] (Db D E A) : major triad (altere
2 2 2 0] (Db E G A) : major triad (altered
2 0 2 0] (Db E G A) : major triad (altered
2 2 2 3] (Db E G A) : major triad (altered
2 2 2 2] (Db E Gb A) : major triad (altered
4 2 2 0] (Db E Gb A) : major triad (altered
2 2 2 0] (Db E Gb A) : major triad (altered
4 2 2 0] (Db E Gb A) : major triad (altered
2 2 2 2] (Db E Gb A) : major triad (altered
7 x x 5] (E A): root and 5th (power chord)
2 2 x 0] (E A) : root and 5th (power chord)
7 x x 0] (E A) : root and 5th (power chord)
2 2 2 2] (Db E Gb A) : major triad plus 6th
4 2 2 0] (Db E Gb A) : major triad plus 6th
2 2 2 0] (Db E Gb A) : major triad plus 6th
4 2 2 0] (Db E Gb A) : major triad plus 6th
2 2 2 2] (Db E Gb A) : major triad plus 6th
2 0 2 2] (Db E Gb G A) : major triad plus
4 0 3 0] (D E Gb G A) : sus4 triad plus 6
2 0 3 2] (D E Gb G A) : sus4 triad plus 6
2 2 2 0] (Db E G A) : major triad, minor 7
2 0 2 0] (Db E G A) : major triad, minor 7
2 2 2 3] (Db E G A) : major triad, minor 7
3 0 2 1] (Db F G A) : minor 7th, sharp 5th
0 0 2 0] (Db D E G A) : major triad, mino
2 0 3 0] (D E G A) : sus4 triad, minor 7t
2 0 3 3] (D E G A) : sus4 triad, minor 7t
2 2 3 3] (D E G A) : sus4 triad, minor 7t
0 0 3 0] (D E G A) : sus4 triad, minor 7t
0 0 x 0] (D E G A) : sus4 triad, minor 7t
2 4 2 0] (Db E A B) : major triad plus 9th
7 6 0 0] (Db E A B) : major triad plus 9th
0 2 2 1] (Db D F A) : augmented triad (alt
3 0 2 1] (Db F G A) : augmented triad (alt
6 5 4 4] (C Eb Ab) : major triad
2 1 1 0] (C E Ab) : augmented triad
1 2 1 4] (C Eb Ab A) : major triad (altered
10 8 9 8] (C Eb F Ab) : major triad (alter
1 1 1 1] (C Eb F Ab) : major triad (altere
1 1 1 2] (C Eb Gb Ab) : major triad (altere
4 5 4 4] (C Eb Gb Ab) : major triad (altere
6 x x 4] (Eb Ab): root and 5th (power chord)
10 8 9 8] (C Eb F Ab) : major triad plus 6
1 1 1 1] (C Eb F Ab) : major triad plus 6t
1 1 1 2] (C Eb Gb Ab) : major triad, minor
4 5 4 4] (C Eb Gb Ab) : major triad, minor
0 1 0 0] (D E Ab B) : diminished triad (al
2 1 3 0] (D E Ab B) : diminished triad (al
0 1 3 0] (D E Ab B) : diminished triad (al

Abdim/E
Abdim/Eb
Abdim/F
Abdim/F
Abdim/F
Abdim7
Abdim7
Abdim7
Abm
Abm/D
Abm/E
Abm/E
Abm/E
Abm/Gb
Abm7
Absus
Absus2/F
Adim/Ab
Adim/E
Adim/F
Adim/F
Adim/G
Adim/Gb
Adim7
Am
Am
Am
Am
Am/B
Am/B
Am/D
Am/D
Am/Eb
Am/F
Am/F
Am/F
Am/F
Am/F
Am/G
Am/G
Am/G
Am/G
Am/Gb
Am/Gb
Am6
Am6
Am7
Am7
Am7
Am7
Am7(b5)
7th
Am7/add11
Amaj7
Amin/maj9

or

Absus4

or

Ao7

or
or

Am7/11
A#7

[x
[x
[x
[x
[x
[x
[x
[x
[x
[x
[0
[0
[x
[x
[x
[x
[x
[x
[0
[x
[x
[x
[x
[x
[x
[x
[x
[8
[0
[x
[x
[x
[0
[0
[1
[1
[x
[x
[0
[x
[x
[x
[x
[x
[x
[x
[0
[x
[x
[x
[x

x 0 1 0 0] (D
x 0 4 4 4] (D
2 0 1 0 1] (D
x 0 1 0 1] (D
x 3 4 3 4] (D
2 0 1 0 1] (D
x 0 1 0 1] (D
x 3 4 3 4] (D
x 6 4 4 4] (Eb
x 0 4 4 4] (D
2 1 1 0 0] (Eb
x 6 4 4 0] (Eb
x 1 1 0 0] (Eb
x 4 4 4 4] (Eb
x 4 4 4 4] (Eb
x 6 6 4 4] (Db
1 3 1 4 1] (Eb
x 1 2 1 4] (C
3 x 2 4 0] (C
x 1 2 1 1] (C
x 3 5 4 5] (C
x 1 2 1 3] (C
x 1 2 1 2] (C
x 1 2 1 2] (C
0 2 2 1 0] (C
0 7 5 5 5] (C
3 2 2 1 0] (C
12 x x x 0] (C
0 7 5 0 0] (C
3 2 2 0 0] (C
x 0 2 1 0] (C
x 0 5 5 5] (C
3 x 2 4 0] (C
0 3 2 1 0] (C
3 3 2 1 0] (C
x 2 2 1 0] (C
x 2 2 1 1] (C
x 3 2 1 0] (C
0 2 0 1 3] (C
0 2 0 1 0] (C
0 2 2 1 3] (C
0 5 5 5 8] (C
0 2 2 1 2] (C
x 2 2 1 2] (C
0 2 2 1 2] (C
x 2 2 1 2] (C
0 2 0 1 3] (C
0 2 0 1 0] (C
0 2 2 1 3] (C
0 5 5 5 8] (C
x 1 2 1 3] (C

E
Eb
F
F
F
F
F
F
Ab
Eb
E
E
E
Gb
Gb
Eb
F
Eb
Eb
Eb
Eb
Eb
Eb
Eb
E
E
E
E
E
E
D
D
Eb
E
E
E
E
E
E
E
E
E
E
E
E
E
E
E
E
E
Eb

[x 5 7 5 8 0] (C D
[x 0 2 1 2 0] (Db E
[x 0 6 5 5 7] (C E

Ab B) : diminished triad (al


Ab B) : diminished triad (al
Ab B) : diminished triad (al
Ab B) : diminished triad (al
Ab B) : diminished triad (al
Ab B) : diminished triad, di
Ab B) : diminished triad, di
Ab B) : diminished triad, di
B) : minor triad
Ab B) : minor triad (altered
Ab B) : minor triad (altered
Ab B) : minor triad (altered
Ab B) : minor triad (altered
Ab B) : minor triad (altered
Ab B) : minor triad, minor 7
Ab) : no 3rd but a 4th from
Ab Bb) : sus2 triad (altered
Ab A) : diminished triad (al
E A) : diminished triad (al
F A) : diminished triad (al
F A) : diminished triad (al
G A) : diminished triad (al
Gb A) : diminished triad (al
Gb A) : diminished triad, di
A) : minor triad
A) : minor triad
A) : minor triad
A) : minor triad
A B) : minor triad (altered
A B) : minor triad (altered
E A) : minor triad (altered
E A) : minor triad (altered
E A) : minor triad (altered
F A) : minor triad (altered
F A) : minor triad (altered
F A) : minor triad (altered
F A) : minor triad (altered
F A) : minor triad (altered
G A) : minor triad (altered
G A) : minor triad (altered
G A) : minor triad (altered
G A) : minor triad (altered
Gb A) : minor triad (altered
Gb A) : minor triad (altered
Gb A) : minor triad plus 6th
Gb A) : minor triad plus 6th
G A) : minor triad, minor 7
G A) : minor triad, minor 7
G A) : minor triad, minor 7
G A) : minor triad, minor 7
G A) : diminished triad, mi

E G A) : minor triad, mino


Ab A) : major triad, major 7
Ab A B) : minor triad, majo

Asus
Asus
Asus
Asus
Asus2
Asus2
Asus2
Asus2
Asus2
Asus2/Ab
Asus2/C
Asus2/C
Asus2/D
Asus2/D
Asus2/Db
Asus2/Db
Asus2/Eb
Asus2/F
Asus2/G
Asus2/G
Asus2/G
Asus2/Gb
Asus2/Gb
Asus4/Ab
Asus4/B
Asus4/Bb
Asus4/C
Asus4/C
Asus4/Db
Asus4/Db
Asus4/Db
Asus4/Db
Asus4/F
Asus4/G
Asus4/G
Asus4/G
Asus4/G
Asus4/Gb
Asus4/Gb
Asus4/Gb
Asus4/Gb
Asus4/Gb
Asus4/Gb
Asus4/Gb
B
B #5
B #5
B/A
B/A
B/A
B/A
B/Ab
B/E
B/E
B5

or
or
or
or
or
or
or
or
or

or
or
or

or

Asus4
[0
Asus4
[x
Asus4
[5
Asus4
[x
Aadd9(no3)[0
Aadd9(no3)[0
Aadd9(no3)[0
Aadd9(no3)[x
Aadd9(no3)[x
[x
[0
[x
[0
[x
[0
[x
[x
[0
[3
[x
[x
[x
[x
[4
[0
[0
[x
[x
[x
[x
[x
[x
[x
[x
[x
[x
[x
[0
[0
[2
[x
[x
[x
[x
Bmaj
[x
Baug
[3
Baug
[3
[2
[x
[x
[x
[x
[x
[x
B(no 3rd) [7

0
0
5
0
0
0
2
0
x
0
0
3
2
2
0
0
2
0
x
0
0
0
2
x
2
1
x
x
0
x
x
x
x
0
0
0
0
0
0
x
0
x
5
9
2
2
x
x
0
2
2
x
2
x
9

2
2
7
0
2
2
2
2
2
2
7
2
0
0
2
7
1
3
2
2
5
4
4
0
0
x
0
0
0
0
0
0
7
2
2
2
0
0
4
0
2
2
4
7
4
1
1
1
1
1
4
4
2
4
9

2
2
7
2
2
4
2
2
2
1
5
2
2
2
4
6
2
2
2
0
4
4
2
2
2
2
2
5
2
2
6
9
7
0
0
2
0
2
2
2
2
2
2
7
4
0
0
2
2
2
2
4
4
4
x

3 0] (D E A) : no 3rd but a 4th from a


3 0] (D E A) : no 3rd but a 4th from a
x 0] (D E A) : no 3rd but a 4th from a
3 0] (D E A) : no 3rd but a 4th from a
0 0] (E A B) : no 3rd but a 2nd from a
0 0] (E A B) : no 3rd but a 2nd from a
0 0] (E A B) : no 3rd but a 2nd from a
0 0] (E A B) : no 3rd but a 2nd from a
0 0] (E A B) : no 3rd but a 2nd from a
0 0] (E Ab A B) : sus2 triad (altered
0 0] (C E A B) : sus2 triad (altered
0 0] (C E A B) : sus2 triad (altered
0 0] (D E A B) : sus2 triad (altered
3 0] (D E A B) : sus2 triad (altered
2 0] (Db E A B) : sus2 triad (altered
0 0] (Db E A B) : sus2 triad (altered
0 0] (Eb E A B) : sus2 triad (altered
0 0] (E F A B) : sus2 triad (altered
0 0] (E G A B) : sus2 triad (altered
0 0] (E G A B) : sus2 triad (altered
5 0] (E G A B) : sus2 triad (altered
0 0] (E Gb A B) : sus2 triad (altered
5 2] (E Gb A B) : sus2 triad (altered
3 0] (D E Ab A) : sus4 triad (altered
0 0] (D E A B) : sus4 triad (altered
3 0] (D E A Bb) : sus4 triad (altered
1 0] (C D E A) : sus4 triad (altered
5 5] (C D E A) : sus4 triad (altered
2 0] (Db D E A) : sus4 triad (altered
2 0] (Db D E A) : sus4 triad (altered
5 5] (Db D E A) : sus4 triad (altered
10 9] (Db D E A) : sus4 triad (altered
6 0] (D E F A) : sus4 triad (altered
3 0] (D E G A) : sus4 triad (altered
3 3] (D E G A) : sus4 triad (altered
3 3] (D E G A) : sus4 triad (altered
x 0] (D E G A) : sus4 triad (altered
3 2] (D E Gb A) : sus4 triad (altered
3 0] (D E Gb A) : sus4 triad (altered
3 0] (D E Gb A) : sus4 triad (altered
3 2] (D E Gb A) : sus4 triad (altered
3 2] (D E Gb A) : sus4 triad (altered
3 0] (D E Gb A) : sus4 triad (altered
x 0] (D E Gb A) : sus4 triad (altered
4 2] (Eb Gb B) : major triad
0 3] (Eb G B) : augmented triad
0 3] (Eb G B) : augmented triad
0 2] (Eb Gb A B) : major triad (altered
0 2] (Eb Gb A B) : major triad (altered
0 2] (Eb Gb A B) : major triad (altered
4 2] (Eb Gb A B) : major triad (altered
4 4] (Eb Gb Ab B) : major triad (altered
4 2] (Eb E Gb B) : major triad (altered
4 0] (Eb E Gb B) : major triad (altered
x 2] (Gb B): root and 5th (power chord)

B5
or
B6
B7
or
B7
or
B7
or
B7
or
B7/add11 or
B7/add11 or
B7sus4
B7sus4
Baug/E
Baug/E
Bb
or
Bb
or
Bb
or
Bb #5
or
Bb b5
Bb/A
Bb/Ab
Bb/Ab
Bb/Db
Bb/E
Bb/G
Bb/G
Bb5
or
Bb5
or
Bb6
Bb6
Bb6/add9 or
Bb7
or
Bb7
or
Bb7sus4
Bbadd#11
Bbaug/E
Bbdim/C
Bbdim/D
Bbdim/G
Bbdim/G
Bbdim/Gb
Bbdim/Gb
Bbdim7
Bbdim7
Bbm
Bbm/Ab
Bbm/D
Bbm/Gb
Bbm7
Bbmaj7
or
Bbmaj9
or
Bbsus2
or
Bbsus2/G
Bbsus4/Ab
Bdim/A
Bdim/A
Bdim/A

B(no 3rd) [x
[x
Bdom 7
[2
Bdom 7
[x
Bdom 7
[x
Bdom 7
[x
B7/11
[0
B7/11
[0
[x
[x
[3
[x
Bbmaj
[1
Bbmaj
[x
Bbmaj
[x
Bbaug
[x
[x
[1
[x
[x
[x
[x
[3
[x
Bb(no 3rd)[6
Bb(no 3rd)[x
[3
[x
Bb6/9
[x
Bbdom 7
[x
Bbdom 7
[x
[x
[x
[2
[x
[x
[x
[x
[2
[x
[x
[x
[1
[x
[x
[x
[x
Bb#7
[1
Bb9(#7)
[x
Bbadd9(no3)[x
[x
[x
[1
[x
[x

2
x
x
0
2
2
0
2
0
2
x
x
1
1
x
x
x
1
1
x
x
1
5
x
8
1
5
x
3
1
x
1
1
x
3
x
1
x
4
x
1
x
1
1
x
x
1
1
3
x
3
1
2
2
x

4
4
1
1
1
4
4
1
4
4
1
1
3
3
0
0
0
3
3
3
0
3
3
3
8
3
3
3
3
3
3
3
3
4
x
0
2
2
2
4
2
2
3
3
0
3
3
3
3
3
5
3
3
0
0

4
4
2
2
2
2
4
2
4
2
0
0
3
3
3
3
3
2
1
3
6
3
3
3
x
3
3
3
3
1
3
1
3
3
3
3
0
3
3
3
0
3
3
1
6
3
1
2
3
3
3
1
2
2
2

x
4
0
0
0
4
4
0
0
5
0
0
3
3
3
3
x
3
3
3
6
3
3
3
x
x
3
3
3
3
3
4
3
3
2
2
2
2
2
2
2
2
2
2
6
2
2
3
3
1
6
4
3
0
0

2]
4]
2]
2]
2]
2]
0]
2]
0]
2]
0]
0]
1]
1]
1]
2]
0]
1]
1]
4]
6]
0]
3]
3]
6]
6]
3]
3]
3]
1]
4]
1]
0]
0]
0]
0]
0]
3]
2]
0]
0]
3]
1]
1]
6]
2]
1]
1]
5]
1]
3]
1]
1]
1]
1]

(Gb
(Eb
(Eb
(Eb
(Eb
(Eb
(Eb
(Eb
(E
(E
(Eb
(Eb
(D
(D
(D
(D
(D
(D
(D
(D
(Db
(D
(D
(D
(F
(F
(D
(D
(C
(D
(D
(Eb
(D
(D
(C
(Db
(Db
(Db
(Db
(Db
(Db
(Db
(Db
(Db
(Db
(Db
(Db
(D
(C
(C
(C
(Eb
(D
(D
(D

B): root and 5th (power chord)


Gb Ab B) : major triad plus 6th
Gb A B) : major triad, minor 7
Gb A B) : major triad, minor 7
Gb A B) : major triad, minor 7
Gb A B) : major triad, minor 7
E Gb A B) : major triad, mino
E Gb A B) : major triad, mino
Gb A B) : sus4 triad, minor 7t
Gb A B) : sus4 triad, minor 7t
E G B) : augmented triad (alt
E G B) : augmented triad (alt
F Bb) : major triad
F Bb) : major triad
F Bb) : major triad
Gb Bb) : augmented triad
E Bb) : flat 5th
F A Bb) : major triad (altere
F Ab Bb) : major triad (altere
F Ab Bb) : major triad (altere
D F Bb) : major triad (altere
E F Bb) : major triad (altere
F G Bb) : major triad (altere
F G Bb) : major triad (altere
Bb): root and 5th (power chord)
Bb): root and 5th (power chord)
F G Bb) : major triad plus 6t
F G Bb) : major triad plus 6t
D F G Bb) : major triad plus
F Ab Bb) : major triad, minor
F Ab Bb) : major triad, minor
F Ab Bb) : sus4 triad, minor 7
E F Bb) : major triad, augmen
E Gb Bb) : augmented triad (al
Db E Bb) : diminished triad (a
D E Bb) : diminished triad (a
E G Bb) : diminished triad (a
E G Bb) : diminished triad (a
E Gb Bb) : diminished triad (a
E Gb Bb) : diminished triad (a
E G Bb) : diminished triad, d
E G Bb) : diminished triad, d
F Bb) : minor triad
F Ab Bb) : minor triad (altere
D F Bb) : minor triad (altere
F Gb Bb) : minor triad (altere
F Ab Bb) : minor triad, minor
F A Bb) : major triad, major
D F A Bb) : major triad, maj
F Bb) : no 3rd but a 2nd from
F G Bb) : sus2 triad (altered
F Ab Bb) : sus4 triad (altered
F A B) : diminished triad (al
F A B) : diminished triad (al
F A B) : diminished triad (al

Bdim/Ab
Bdim/Ab
Bdim/Ab
Bdim/G
Bdim/G
Bdim/G
Bdim7
Bdim7
Bdim7
Bm
Bm
Bm
Bm/A
Bm/A
Bm/A
Bm/A
Bm/A
Bm/G
Bm/G
Bm/G
Bm/G
Bm7
Bm7
Bm7
Bm7
Bm7
Bm7(b5)
7th
Bm7(b5)
7th
Bm7(b5)
7th
Bm7/add11
Bm7/add11
Bmaj7/#11
Bsus
Bsus
Bsus2
Bsus2
Bsus2/E
Bsus4/A
Bsus4/A
Bsus4/Ab
Bsus4/Ab
Bsus4/Ab
Bsus4/Db
Bsus4/Eb
Bsus4/Eb
Bsus4/G
Bsus4/G
Bsus4/G
Bsus4/G
C
C
C

or

Bo7

[x
[x
[x
[1
[3
[x
[x
[x
[x
[2
[x
[x
[x
[x
[x
[x
[x
[2
[2
[3
[x
[x
[x
[x
[x
[x
[1

or

Bo7

[x 2 0 2 0 1] (D

B) : diminished triad, mi

or

Bo7

[x x 0 2 0 1] (D

B) : diminished triad, mi

or
or

Bm7/11
Bm7/11

E
E
F
Gb
Gb
Gb
Gb
E
Gb
Gb
Gb
Gb
Gb
E
E
E
Gb
Gb
Gb
Gb
E
E
E

Gb A B) : minor triad, mino


Gb A B) : minor triad, mino
Gb Bb B) : major triad, majo
B) : no 3rd but a 4th from a
B) : no 3rd but a 4th from a
B): no 3rd but a 2nd from a
B) : no 3rd but a 2nd from a
Gb B) : sus2 triad (altered
A B) : sus4 triad (altered
A B) : sus4 triad (altered
Ab B) : sus4 triad (altered
Ab B) : sus4 triad (altered
Ab B) : sus4 triad (altered
Gb B) : sus4 triad (altered
Gb B) : sus4 triad (altered
Gb B) : sus4 triad (altered
G B) : sus4 triad (altered
G B) : sus4 triad (altered
G B) : sus4 triad (altered
G B) : sus4 triad (altered
G) : major triad
G) : major triad
G) : major triad

or
or
or
or

or
or
or

[0
[0
[x
Bsus4
[7
Bsus4
[x
Badd9(no3)[x
Badd9(no3)[x
[x
[x
[x
[0
[0
[2
[x
[x
[x
[0
[0
[0
[2
Cmaj
[0
Cmaj
[0
Cmaj
[3

2
x
x
x
2
x
2
x
x
2
2
x
0
2
2
2
x
2
2
2
x
0
2
2
2
x
2

0
2
2
9
2
4
x
4
0
2
2
x
2
4
2
x
2
2
x
2
3
3
3

0
0
3
0
0
0
0
0
3
4
4
0
4
0
0
4
0
0
0
0
4
4
0
0
4
0
3

2
0
3
9
4
4
4
4
4
4
2
4
2
4
2
4
2
4
4
2
2
5
2

1
1
4
0
0
0
1
1
4
4
4
4
4
2
2
2
2
0
0
0
4
4
2
2
2
2
2

4
2
3
x
4
4
4
4
4
2
1
1
1
4
4
4
0
0
0
0
0
5
0

0
0
3
0
0
0
0
0
3
3
3
3
3
0
3
3
0
0
3
0
3
3
0
3
3
0
3

3
0
4
x
x
x
2
x
0
5
0
0
0
x
4
4
0
0
0
0
1
5
1

1]
1]
4]
3]
1]
1]
1]
1]
4]
2]
2]
2]
2]
2]
2]
2]
2]
3]
3]
2]
3]
2]
2]
2]
2]
2]
1]

2]
2]
2]
0]
0]
2]
2]
0]
0]
2]
2]
0]
0]
0]
2]
0]
2]
0]
0]
0]
0]
3]
0]

(D
(D
(D
(D
(D
(D
(D
(D
(D
(D
(D
(D
(D
(D
(D
(D
(D
(D
(D
(D
(D
(D
(D
(D
(D
(D
(D

(D
(D
(Eb
(E
(E
(Db
(Db
(Db
(E
(E
(E
(E
(E
(Db
(Eb
(Eb
(E
(E
(E
(E
(C
(C
(C

F
F
F
F
F
F
F
F
F
Gb
Gb
Gb
Gb
Gb
Gb
Gb
Gb
Gb
Gb
Gb
Gb
Gb
Gb
Gb
Gb
Gb
F

Ab
Ab
Ab
G
G
G
Ab
Ab
Ab
B)
B)
B)
A
A
A
A
A
G
G
G
G
A
A
A
A
A
A

B) : diminished triad (al


B) : diminished triad (al
B) : diminished triad (al
B) : diminished triad (al
B) : diminished triad (al
B) : diminished triad (al
B) : diminished triad, di
B) : diminished triad, di
B) : diminished triad, di
: minor triad
: minor triad
: minor triad
B) : minor triad (altered
B) : minor triad (altered
B) : minor triad (altered
B) : minor triad (altered
B) : minor triad (altered
B) : minor triad (altered
B) : minor triad (altered
B) : minor triad (altered
B) : minor triad (altered
B) : minor triad, minor 7
B) : minor triad, minor 7
B) : minor triad, minor 7
B) : minor triad, minor 7
B) : minor triad, minor 7
B) : diminished triad, mi

C
C
C
C #5
C b5
C/A
C/A
C/A
C/A
C/B
C/B
C/B
C/Bb
C/D
C/D
C/D
C/D
C/D
C/D
C/D
C/D
C/F
C/F
C5
C6
C6
C6
C6
C6/add9
C7
C7sus4
C9(b5)
Cadd9
Cadd9
Cadd9
Cadd9
Cadd9
Cadd9
Cadd9
Cadd9
Cadd9
Cdim/A
Cdim/Ab
Cdim/Ab
Cdim/D
Cdim7
Cm
Cm
Cm/A
Cm/Bb
Cm6
Cm7
Cmaj7
Cmaj7
Cmaj7

or
or
or
or

or

or
or
or
or
or
or
or
or
or
or
or

or
or
or

Cmaj
Cmaj
Cmaj
Caug

[3
[x
[x
[x
[x
[0
[x
[x
[x
[0
[x
[x
[x
[3
[x
[x
[x
[x
[x
[x
[x
[x
[x
C(no 3rd) [x
[0
[x
[x
[x
C6/9
[x
Cdom 7
[x
[x
[0
C2
[3
C2
[x
C2
[x
C2
[x
C2
[x
C2
[x
C2
[x
C2
[x
C2
[x
[x
[x
[x
[x
[x
[x
[x
[x
[x
[x
[x
C#7
[0
C#7
[x
C#7
[x

x 2 0
3 2 0
3 5 5
3 2 1
x 4 5
0 2 0
0 2 0
0 2 2
0 5 5
3 2 0
2 2 0
3 5 4
3 5 3
x 0 0
3 0 0
3 2 0
3 2 0
x 0 0
x 0 5
10 12
5 5 5
3 3 0
x 3 0
3 5 5
0 2 0
0 2 0
0 2 2
0 5 5
5 7 5
3 5 3
3 5 3
3 x 3
x 0 0
3 0 0
3 2 0
3 2 0
x 0 0
x 0 5
10 12
3 2 0
5 5 5
x 1 2
x 1 1
x 4 5
5 4 5
x 1 2
3 5 5
x 5 5
x 1 2
3 5 3
x 1 2
3 5 3
3 2 0
2 2 0
3 5 4

1 0] (C
1 0] (C
5 0] (C
1 0] (C
x 0] (C
1 3] (C
1 0] (C
1 3] (C
5 8] (C
0 0] (C
1 0] (C
5 3] (C
5 3] (C
1 0] (C
1 0] (C
3 0] (C
3 3] (C
1 0] (C
5 3] (C
12 13 0]
x 0] (C
1 0] (C
1 0] (C
x 3] (C
1 3] (C
1 0] (C
1 3] (C
5 8] (C
8 0] (C
5 3] (C
6 3] (C
3 2] (C
1 0] (C
1 0] (C
3 0] (C
3 3] (C
1 0] (C
5 3] (C
12 13 0]
3 0] (C
x 0] (C
1 2] (C
1 2] (C
4 4] (C
4 2] (C
1 2] (C
4 3] (C
4 3] (C
1 3] (C
4 3] (C
1 3] (C
4 3] (C
0 0] (C
1 0] (C
5 3] (C

E G) : major triad
E G) : major triad
E G) : major triad
E Ab) : augmented triad
E Gb) : flat 5th
E G A) : major triad (altered
E G A) : major triad (altered
E G A) : major triad (altered
E G A) : major triad (altered
E G B) : major triad (altered
E G B) : major triad (altered
E G B) : major triad (altered
E G Bb) : major triad (altere
D E G) : major triad (altered
D E G) : major triad (altered
D E G) : major triad (altered
D E G) : major triad (altered
D E G) : major triad (altered
D E G) : major triad (altered
(C D E G) : major triad (alt
D E G) : major triad (altered
E F G) : major triad (altered
E F G) : major triad (altered
G): root and 5th (power chord)
E G A) : major triad plus 6th
E G A) : major triad plus 6th
E G A) : major triad plus 6th
E G A) : major triad plus 6th
D E G A) : major triad plus
E G Bb) : major triad, minor
F G Bb) : sus4 triad, minor 7
D E Gb Bb) : diminished 5th,
D E G) : major triad plus 9th
D E G) : major triad plus 9th
D E G) : major triad plus 9th
D E G) : major triad plus 9th
D E G) : major triad plus 9th
D E G) : major triad plus 9th
(C D E G) : major triad plus
D E G) : major triad plus 9th
D E G) : major triad plus 9th
Eb Gb A) : diminished triad (al
Eb Gb Ab) : diminished triad (a
Eb Gb Ab) : diminished triad (a
D Eb Gb): diminished triad (al
Eb Gb A) : diminished triad, di
Eb G) : minor triad
Eb G) : minor triad
Eb G A) : minor triad (altered
Eb G Bb) : minor triad (altere
Eb G A) : minor triad plus 6th
Eb G Bb) : minor triad, minor
E G B) : major triad, major 7
E G B) : major triad, major 7
E G B) : major triad, major 7

Cmaj9
Csus
Csus
Csus2
Csus2
Csus2
Csus2
Csus2/A
Csus2/A
Csus2/B
Csus2/B
Csus2/E
Csus2/E
Csus2/E
Csus2/E
Csus2/E
Csus2/E
Csus2/E
Csus2/E
Csus2/F
Csus4/A
Csus4/A
Csus4/B
Csus4/Bb
Csus4/D
Csus4/E
Csus4/E
D
D
D
D
D
D
D
D #5
D/B
D/B
D/B
D/B
D/B
D/C
D/C
D/C
D/C
D/Db
D/Db
D/E
D/E
D/E
D/E
D/E
D/E
D/E
D/G
D/G

or
or
or
or
or
or
or

or
or
or
or
or
or
or
or

C9(#7)
[x
Csus4
[x
Csus4
[x
Cadd9(no3)[x
Cadd9(no3)[x
Cadd9(no3)[x
Cadd9(no3)[x
[x
[x
[3
[x
[3
[x
[x
[x
[x
[x
[x
[x
[3
[3
[x
[x
[x
[3
[x
[x
Dmaj
[x
Dmaj
[x
Dmaj
[2
Dmaj
[x
Dmaj
[x
Dmaj
[x
Dmaj
[x
Daug
[x
[x
[x
[x
[x
[x
[x
[x
[x
[x
[x
[x
[0
[0
[2
[x
[x
[x
[x
[5
[3

3 0 0 0 0] (C D
3 3 0 1 1] (C F
x 3 0 1 1] (C F
10 12 12 13 3] (C
5 5 5 x 3] (C D
3 0 0 3 3] (C D
3 5 5 3 3] (C D
5 7 5 8 3] (C D
x 0 2 1 3] (C D
3 0 0 0 3] (C D
3 0 0 0 3] (C D
x 0 0 1 0] (C D
3 0 0 1 0] (C D
3 2 0 3 0] (C D
3 2 0 3 3] (C D
x 0 0 1 0] (C D
x 0 5 5 3] (C D
10 12 12 13 0] (C
5 5 5 x 0] (C D
3 0 0 1 1] (C D
x 3 2 1 1] (C F
x 3 2 1 3] (C F
3 3 0 0 3] (C F
3 5 3 6 3] (C F
3 0 0 1 1] (C D
3 3 0 1 0] (C E
x 3 0 1 0] (C E
5 4 2 3 2] (D Gb
9 7 7 x 2] (D Gb
0 0 2 3 2] (D Gb
0 0 2 3 2] (D Gb
0 4 2 3 2] (D Gb
x 0 2 3 2] (D Gb
x 0 7 7 5] (D Gb
x 0 3 3 2] (D Gb
0 4 4 3 2] (D Gb
2 0 2 0 2] (D Gb
2 0 2 3 2] (D Gb
2 4 2 3 2] (D Gb
x 0 2 0 2] (D Gb
5 7 5 7 2] (C D
0 0 2 1 2] (C D
3 x 2 3 2] (C D
5 7 5 7 5] (C D
x 0 14 14 14] (Db
x 0 2 2 2] (Db D
0 0 2 3 2] (D E
0 4 2 3 0] (D E
x 0 2 3 0] (D E
0 2 2 3 2] (D E
x 2 2 3 2] (D E
5 4 2 3 0] (D E
9 7 7 x 0] (D E
x 4 0 3 5] (D Gb
x 0 2 3 2] (D Gb

E G B) : major triad, majo


G) : no 3rd but a 4th from a
G) : no 3rd but a 4th from a
D G): no 3rd but a 2nd fro
G): no 3rd but a 2nd from a
G) : no 3rd but a 2nd from a
G) : no 3rd but a 2nd from a
G A): sus2 triad (altered b
G A) : sus2 triad (altered
G B) : sus2 triad (altered
G B) : sus2 triad (altered
E G) : sus2 triad (altered
E G) : sus2 triad (altered
E G) : sus2 triad (altered
E G) : sus2 triad (altered
E G) : sus2 triad (altered
E G) : sus2 triad (altered
D E G) : sus2 triad (alte
E G) : sus2 triad (altered
F G) : sus2 triad (altered
G A) : sus4 triad (altered
G A) : sus4 triad (altered
G B) : sus4 triad (altered
G Bb) : sus4 triad (altered
F G) : sus4 triad (altered
F G) : sus4 triad (altered
F G) : sus4 triad (altered
A): major triad
A): major triad
A) : major triad
A) : major triad
A) : major triad
A) : major triad
A) : major triad
Bb) : augmented triad
A B) : major triad (altered
A B) : major triad (altered
A B) : major triad (altered
A B) : major triad (altered
A B) : major triad (altered
Gb A): major triad (altered
Gb A) : major triad (altered
Gb A) : major triad (altered
Gb A) : major triad (altered
D Gb A) : major triad (alte
Gb A) : major triad (altered
Gb A) : major triad (altered
Gb A) : major triad (altered
Gb A) : major triad (altered
Gb A) : major triad (altered
Gb A) : major triad (altered
Gb A) : major triad (altered
Gb A) : major triad (altered
G A): major triad (altered
G A) : major triad (altered

D5
D5
D6
D6
D6
D6
D6
D6/add9
D6/add9
D7
D7
D7
D7
D7sus4
D7sus4
D9
D9
D9
D9(#5)
Dadd9
Dadd9
Dadd9
Dadd9
Dadd9
Dadd9
Dadd9
Daug/E
Db
Db
Db
Db
Db
Db #5
Db #5
Db b5
Db/B
Db/Bb
Db/C
Db/C
Db5
Db6
Db7
Dbaug/D
Dbaug/G
Dbdim/A
Dbdim/A
Dbdim/A
Dbdim/B
Dbdim/Bb
Dbdim/Bb
Dbdim/D
Dbdim/D
Dbdim7
Dbdim7
Dbm

or
or

or
or
or
or
or
or
or
or
or
or
or
or
or
or
or
or
or
or
or
or
or
or
or

or
or

D(no 3rd) [5
D(no 3rd) [x
[x
[x
[x
[x
[x
D6/9
[0
D6/9
[0
Ddom 7
[x
Ddom 7
[x
Ddom 7
[x
Ddom 7
[x
[x
[x
Ddom 9
[0
Ddom 9
[2
Ddom 9
[x
[0
D2
[0
D2
[0
D2
[2
D2
[x
D2
[x
D2
[x
D2
[x
[2
Dbmaj
[4
Dbmaj
[x
Dbmaj
[x
Dbmaj
[x
Dbmaj
[x
Dbaug
[x
Dbaug
[x
[x
[x
[x
[x
[x
Db(no 3rd)[x
[x
Dbdom 7
[x
[x
[1
[3
[x
[x
[0
[x
[x
[3
[x
[x
[x
[x

5
0
0
2
2
2
x
0
2
5
0
3
5
5
x
0
x
5
3
0
0
x
0
x
5
9
x
4
4
4
x
x
0
0
x
4
1
3
4
4
1
4
x
0
x
0
0
2
1
x
x
x
1
x
4

7
0
4
0
0
4
0
2
0
7
0
x
7
7
0
0
0
7
x
0
4
0
2
2
4
7
4
6
3
6
3
6
3
x
3
3
3
3
6
6
3
3
0
3
2
2
2
2
2
2
0
0
2
2
6

7
2
4
2
2
2
2
4
2
5
2
2
5
5
2
2
2
5
3
2
2
2
2
2
2
7
3
6
1
6
1
6
2
2
0
4
1
1
5
6
1
4
2
0
2
0
2
0
0
3
0
0
0
3
6

x
3
3
0
3
3
0
3
0
7
1
3
7
8
1
1
1
7
3
3
3
3
3
3
3
x
3
6
2
6
2
6
2
2
2
0
2
2
6
x
2
0
2
2
2
2
2
2
2
2
2
2
2
2
5

5]
5]
2]
2]
2]
2]
2]
2]
2]
2]
2]
2]
5]
3]
3]
2]
0]
0]
2]
2]
0]
0]
2]
2]
0]
0]
0]
4]
1]
4]
1]
4]
1]
1]
1]
4]
1]
1]
4]
4]
1]
4]
1]
1]
0]
0]
3]
0]
0]
3]
0]
0]
0]
3]
4]

(D
(D
(D
(D
(D
(D
(D
(D
(D
(C
(C
(C
(C
(C
(C
(C
(C
(C
(C
(D
(D
(D
(D
(D
(D
(D
(D
(Db
(Db
(Db
(Db
(Db
(Db
(Db
(Db
(Db
(Db
(C
(C
(Db
(Db
(Db
(Db
(Db
(Db
(Db
(Db
(Db
(Db
(Db
(Db
(Db
(Db
(Db
(Db

A): root and 5th (power chord)


A): root and 5th (power chord)
Gb A B) : major triad plus 6th
Gb A B) : major triad plus 6th
Gb A B) : major triad plus 6th
Gb A B) : major triad plus 6th
Gb A B) : major triad plus 6th
E Gb A B) : major triad plus
E Gb A B) : major triad plus
D Gb A): major triad, minor 7t
D Gb A) : major triad, minor 7
D Gb A) : major triad, minor 7
D Gb A) : major triad, minor 7
D G A): sus4 triad, minor 7th
D G A) : sus4 triad, minor 7t
D E Gb A) : major triad, mino
D E Gb A) : major triad, mino
D E Gb A) : major triad, mino
D E Gb Bb) : augmented 5th, m
E Gb A) : major triad plus 9th
E Gb A) : major triad plus 9th
E Gb A) : major triad plus 9th
E Gb A) : major triad plus 9th
E Gb A) : major triad plus 9th
E Gb A) : major triad plus 9th
E Gb A) : major triad plus 9th
E Gb Bb) : augmented triad (al
F Ab) : major triad
F Ab) : major triad
F Ab) : major triad
F Ab) : major triad
F Ab) : major triad
F A) : augmented triad
F A) : augmented triad
F G) : flat 5th
F Ab B) : major triad (altered
F Ab Bb) : major triad (altere
Db F Ab) : major triad (altere
Db F Ab) : major triad (altere
Ab): root and 5th (power chord)
F Ab Bb) : major triad plus 6t
F Ab B) : major triad, minor 7
D F A) : augmented triad (alt
F G A) : augmented triad (alt
E G A) : diminished triad (al
E G A) : diminished triad (al
E G A) : diminished triad (al
E G B) : diminished triad (al
E G Bb) : diminished triad (a
E G Bb) : diminished triad (a
D E G) : diminished triad (al
D E G) : diminished triad (al
E G Bb) : diminished triad, d
E G Bb) : diminished triad, d
E Ab) : minor triad

Dbm
[x x 2 1 2 0] (Db E Ab) : minor triad
Dbm
[x 4 6 6 x 0] (Db E Ab) : minor triad
Dbm/A
[x 0 2 1 2 0] (Db E Ab A) : minor triad (altered
Dbm/B
[0 2 2 1 2 0] (Db E Ab B) : minor triad (altered
Dbm/B
[x 4 6 4 5 4] (Db E Ab B) : minor triad (altered
Dbm7
[0 2 2 1 2 0] (Db E Ab B) : minor triad, minor 7
Dbm7
[x 4 6 4 5 4] (Db E Ab B) : minor triad, minor 7
Dbm7(b5) or
Dbo7
[0 2 2 0 2 0] (Db E G B) : diminished triad, mi
7th
Dbmaj7
or
Db#7
[x 3 3 1 2 1] (C Db F Ab) : major triad, major
Dbmaj7
or
Db#7
[x 4 6 5 6 4] (C Db F Ab) : major triad, major
Dbsus2 or
Dbadd9(no3) [x x 6 6 4 4] (Db Eb Ab) : no 3rd but a 2nd from
Dbsus4/Bb
[x x 4 3 2 4] (Db Gb Ab Bb) : sus4 triad (altered
Ddim/B
[x 2 0 1 0 1] (D F Ab B) : diminished triad (al
Ddim/B
[x x 0 1 0 1] (D F Ab B) : diminished triad (al
Ddim/B
[x x 3 4 3 4] (D F Ab B) : diminished triad (al
Ddim/Bb
[x 1 3 1 3 1] (D F Ab Bb) : diminished triad (a
Ddim/Bb
[x x 3 3 3 4] (D F Ab Bb) : diminished triad (a
Ddim/C
[x x 0 1 1 1] (C D F Ab) : diminished triad (a
Ddim7
[x 2 0 1 0 1] (D F Ab B) : diminished triad, di
Ddim7
[x x 0 1 0 1] (D F Ab B) : diminished triad, di
Ddim7
[x x 3 4 3 4] (D F Ab B) : diminished triad, di
Dm
[x 0 0 2 3 1] (D F A) : minor triad
Dm/B
[1 2 3 2 3 1] (D F A B) : minor triad (altered
Dm/B
[x 2 0 2 0 1] (D F A B) : minor triad (altered
Dm/B
[x x 0 2 0 1] (D F A B) : minor triad (altered
Dm/Bb
[1 1 3 2 3 1] (D F A Bb) : minor triad (altere
Dm/C
[x 5 7 5 6 5] (C D F A) : minor triad (altered
Dm/C
[x x 0 2 1 1] (C D F A) : minor triad (altered
Dm/C
[x x 0 5 6 5] (C D F A) : minor triad (altered
Dm/Db
[x x 0 2 2 1] (Db D F A) : minor triad (altered
Dm/E
[x x 7 7 6 0] (D E F A) : minor triad (altered
Dm6
[1 2 3 2 3 1] (D F A B) : minor triad plus 6th
Dm6
[x 2 0 2 0 1] (D F A B) : minor triad plus 6th
Dm6
[x x 0 2 0 1] (D F A B) : minor triad plus 6th
Dm7
[x 5 7 5 6 5] (C D F A) : minor triad, minor 7
Dm7
[x x 0 2 1 1] (C D F A) : minor triad, minor 7
Dm7
[x x 0 5 6 5] (C D F A) : minor triad, minor 7
Dm7(b5)
or
Do7
[x x 0 1 1 1] (C D F Ab) : diminished triad, m
7th
Dm7/add11 or
Dm7/11
[3 x 0 2 1 1] (C D F G A) : minor triad, mino
Dmaj7
or
D#7
[x x 0 14 14 14] (Db D Gb A) : major triad, majo
Dmaj7
or
D#7
[x x 0 2 2 2] (Db D Gb A) : major triad, major 7
Dmin/maj7
[x x 0 2 2 1] (Db D F A) : minor triad, major 7
Dsus
or
Dsus4
[5 x 0 0 3 5] (D G A): no 3rd but a 4th from a
Dsus
or
Dsus4
[3 0 0 0 3 3] (D G A) : no 3rd but a 4th from a
Dsus
or
Dsus4
[x 0 0 0 3 3] (D G A) : no 3rd but a 4th from a
Dsus
or
Dsus4
[x x 0 2 3 3] (D G A) : no 3rd but a 4th from a
Dsus2
or
Dadd9(no3)[5 5 7 7 x 0] (D E A): no 3rd but a 2nd from a
Dsus2
or
Dadd9(no3)[x 0 0 2 3 0] (D E A): no 3rd but a 2nd from a
Dsus2
or
Dadd9(no3)[0 0 2 2 3 0] (D E A) : no 3rd but a 2nd from a
Dsus2
or
Dadd9(no3)[x 0 2 2 3 0] (D E A) : no 3rd but a 2nd from a
Dsus2
or
Dadd9(no3)[x x 0 2 3 0] (D E A) : no 3rd but a 2nd from a
Dsus2/Ab
[4 x 0 2 3 0] (D E Ab A) : sus2 triad (altered
Dsus2/B
[0 2 0 2 0 0] (D E A B) : sus2 triad (altered

Dsus2/B
Dsus2/Bb
Dsus2/C
Dsus2/C
Dsus2/Db
Dsus2/Db
Dsus2/Db
Dsus2/Db
Dsus2/F
Dsus2/G
Dsus2/G
Dsus2/G
Dsus2/G
Dsus2/G
Dsus2/Gb
Dsus2/Gb
Dsus2/Gb
Dsus2/Gb
Dsus2/Gb
Dsus2/Gb
Dsus2/Gb
Dsus4/B
Dsus4/B
Dsus4/C
Dsus4/C
Dsus4/E
Dsus4/E
Dsus4/E
Dsus4/E
Dsus4/E
Dsus4/Gb
Dsus4/Gb
E
E
E #5
E/A
E/D
E/D
E/D
E/D
E/Db
E/Db
E/Eb
E/Eb
E/Eb
E/Gb
E/Gb
E/Gb
E11/b9
11th
E5
E5
E6
E6
E7

Emaj
Emaj
Eaug

2
1
x
x
0
x
x
x
x
0
0
0
x
0
0
0
x
0
x
5
9
0
2
5
x
0
0
0
x
0
x
x
2
7
3
0
2
2
2
x
2
4
2
x
x
2
x
2
0

0
x
0
0
0
0
0
0
7
2
2
2
0
0
0
4
0
2
2
4
7
0
0
7
0
2
2
2
0
0
4
0
2
6
2
2
0
2
0
0
2
6
1
6
1
2
4
2
3

2
2
2
5
2
2
6
9
7
0
0
2
0
0
2
2
2
2
2
2
7
0
2
5
2
0
0
2
0
0
0
2
1
4
1
1
1
1
1
1
1
4
1
4
1
1
1
1
4

3 0] (D E
3 0] (D E
1 0] (C D
5 5] (C D
2 0] (Db D
2 0] (Db D
5 5] (Db D
10 9] (Db D
6 0] (D E
3 0] (D E
3 3] (D E
3 3] (D E
3 0] (D E
x 0] (D E
3 2] (D E
3 0] (D E
3 0] (D E
3 2] (D E
3 2] (D E
3 0] (D E
x 0] (D E
0 3] (D G
0 3] (D G
8 3] (C D
1 3] (C D
3 0] (D E
3 3] (D E
3 3] (D E
3 0] (D E
x 0] (D E
3 5] (D Gb
3 2] (D Gb
0 0] (E Ab
5 0] (E Ab
1 0] (C E
0 0] (E Ab
0 0] (D E
3 0] (D E
3 0] (D E
0 0] (D E
2 0] (Db E
5 4] (Db E
0 0] (Eb E
4 0] (Eb E
0 0] (Eb E
0 2] (E Gb
0 0] (E Gb
0 0] (E Gb
3 4] (D E

A
A
E
E
E
E
E

or
or
or

[x
[0
[x
[x
[x
[x
[x
[x
[x
[x
[x
[x
[5
[x
[0
[0
[2
[x
[x
[x
[x
[3
[3
[x
[x
[x
[x
[x
[5
[x
[5
[3
[0
[x
[x
[x
[0
[0
[x
[x
[0
[x
[0
[0
[x
[0
[0
[2
[0

or
or

E(no 3rd) [0
E(no 3rd) [x
[0
[x
Edom 7
[0

2
7
2
4
2

x
9
2
6
0

x
9
1
4
1

x
x
2
5
0

: root and 5th (power chord)


: root and 5th (power chord)
Ab B) : major triad plus 6th
Ab B) : major triad plus 6th
Ab B) : major triad, minor 7

or

0]
0]
0]
4]
0]

(E
(E
(Db
(Db
(D

B)
B)
E
E
E

B) : sus2 triad (altered


Bb) : sus2 triad (altered
A) : sus2 triad (altered
A) : sus2 triad (altered
A) : sus2 triad (altered
A) : sus2 triad (altered
A) : sus2 triad (altered
E A) : sus2 triad (altered
F A) : sus2 triad (altered
G A) : sus2 triad (altered
G A) : sus2 triad (altered
G A) : sus2 triad (altered
G A) : sus2 triad (altered
G A) : sus2 triad (altered
Gb A) : sus2 triad (altered
Gb A) : sus2 triad (altered
Gb A) : sus2 triad (altered
Gb A) : sus2 triad (altered
Gb A) : sus2 triad (altered
Gb A) : sus2 triad (altered
Gb A) : sus2 triad (altered
A B) : sus4 triad (altered
A B) : sus4 triad (altered
G A): sus4 triad (altered b
G A) : sus4 triad (altered
G A) : sus4 triad (altered
G A) : sus4 triad (altered
G A) : sus4 triad (altered
G A) : sus4 triad (altered
G A) : sus4 triad (altered
G A): sus4 triad (altered b
G A) : sus4 triad (altered
B) : major triad
B) : major triad
Ab) : augmented triad
A B) : major triad (altered
Ab B) : major triad (altered
Ab B) : major triad (altered
Ab B) : major triad (altered
Ab B) : major triad (altered
Ab B) : major triad (altered
Ab B) : major triad (altered
Ab B) : major triad (altered
Ab B) : major triad (altered
Ab B) : major triad (altered
Ab B) : major triad (altered
Ab B) : major triad (altered
Ab B) : major triad (altered
F Ab A B) : major triad, m

E7
E7
E7
E7/add11
E7/b9(b5)
E7sus4
E9
E9
Eadd9
Eadd9
Eadd9
Eb
Eb
Eb
Eb #5
Eb #5
Eb/C
Eb/D
Eb/Db
Eb/Db
Eb/Db
Eb/E
Eb5
Eb6
Eb7
Eb7
Eb7
Ebaug/E
Ebaug/E
Ebdim/B
Ebdim/B
Ebdim/B
Ebdim/B
Ebdim/C
Ebdim7
Ebm
Ebm/Db
Ebm7
Ebmaj7
Ebsus2/Ab
Ebsus4/F
Edim/C
Edim/D
Edim/Db
Edim/Db
Edim/Eb
Edim7
Edim7
Em
Em
Em
Em/A
Em/A
Em/A
Em/C

or
or
or
or
or
or
or
or
or
or
or
or
or
or

or
or
or
or

or

Edom 7
Edom 7
Edom 7
E7/11

[0
[x
[x
[x
[0
[0
Edom 9
[0
Edom 9
[2
E2
[0
E2
[0
E2
[2
Ebmaj
[x
Ebmaj
[x
Ebmaj
[x
Ebaug
[3
Ebaug
[3
[x
[x
[x
[x
[x
[x
Eb(no 3rd)[x
[x
Ebdom 7
[x
Ebdom 7
[x
Ebdom 7
[x
[3
[x
[2
[x
[x
[x
[x
[x
[x
[x
[x
Eb#7
[x
[x
[x
[x
[3
[x
[x
[x
[x
[x
[0
[3
[x
[3
[x
[x
[0

2
2
x
0
1
2
2
2
2
x
2
1
x
x
2
x
3
6
1
6
x
x
6
3
1
6
x
x
x
x
0
2
2
x
x
x
x
x
6
1
1
3
x
1
x
x
1
x
2
x
2
x
0
0
3

2
0
0
0
3
0
0
0
2
4
2
1
1
5
1
1
5
8
1
8
1
5
8
5
1
8
1
1
1
1
1
1
4
1
1
4
1
1
8
3
3
5
0
2
2
5
2
2
2
2
5
2
2
5
2

1
1
1
1
1
2
1
1
1
1
1
3
3
3
0
0
3
7
3
6
3
3
8
3
3
6
3
0
0
2
2
2
2
2
2
3
3
3
7
1
1
3
3
0
3
3
0
3
0
0
x
2
0
4
0

3
3
0
0
3
0
0
0
0
0
0
4
4
4
0
0
4
8
2
8
2
4
x
4
2
8
2
0
0
0
0
0
4
1
1
4
2
2
8
4
4
5
3
2
2
4
2
2
0
0
x
0
0
5
0

0]
0]
0]
0]
1]
0]
2]
0]
2]
0]
0]
3]
3]
3]
3]
3]
3]
6]
3]
6]
3]
0]
6]
3]
3]
6]
3]
0]
0]
2]
2]
2]
2]
2]
2]
2]
2]
2]
6]
1]
1]
3]
0]
0]
3]
0]
0]
3]
0]
0]
0]
0]
0]
0]
0]

(D
(D
(D
(D
(D
(D
(D
(D
(E
(E
(E
(Eb
(Eb
(Eb
(Eb
(Eb
(C
(D
(Db
(Db
(Db
(Eb
(Eb
(C
(Db
(Db
(Db
(Eb
(Eb
(Eb
(Eb
(Eb
(Eb
(C
(C
(Eb
(Db
(Db
(D
(Eb
(Eb
(C
(D
(Db
(Db
(Eb
(Db
(Db
(E
(E
(E
(E
(E
(E
(C

E Ab B) : major triad, minor 7


E Ab B) : major triad, minor 7
E Ab B) : major triad, minor 7
E Ab A B) : major triad, mino
E F Ab Bb) : diminished 5th,
E A B) : sus4 triad, minor 7t
E Gb Ab B) : major triad, mino
E Gb Ab B) : major triad, mino
Gb Ab B) : major triad plus 9th
Gb Ab B) : major triad plus 9th
Gb Ab B) : major triad plus 9th
G Bb) : major triad
G Bb) : major triad
G Bb) : major triad
G B) : augmented triad
G B) : augmented triad
Eb G Bb) : major triad (altere
Eb G Bb) : major triad (altere
Eb G Bb) : major triad (altere
Eb G Bb) : major triad (altere
Eb G Bb) : major triad (altere
E G Bb) : major triad (altere
Bb): root and 5th (power chord)
Eb G Bb) : major triad plus 6t
Eb G Bb) : major triad, minor
Eb G Bb) : major triad, minor
Eb G Bb) : major triad, minor
E G B) : augmented triad (alt
E G B) : augmented triad (alt
Gb A B) : diminished triad (al
Gb A B) : diminished triad (al
Gb A B) : diminished triad (al
Gb A B) : diminished triad (al
Eb Gb A) : diminished triad (al
Eb Gb A) : diminished triad, di
Gb Bb) : minor triad
Eb Gb Bb) : minor triad (altere
Eb Gb Bb) : minor triad, minor
Eb G Bb) : major triad, major
F Ab Bb) : sus2 triad (altered
F Ab Bb) : sus4 triad (altered
E G Bb) : diminished triad (a
E G Bb) : diminished triad (a
E G Bb) : diminished triad (a
E G Bb) : diminished triad (a
E G Bb) : diminished triad (a
E G Bb) : diminished triad, d
E G Bb) : diminished triad, d
G B) : minor triad
G B) : minor triad
G B) : minor triad
G A B) : minor triad (altered
G A B) : minor triad (altered
G A B) : minor triad (altered
E G B) : minor triad (altered

Em/C
Em/C
Em/D
Em/D
Em/D
Em/D
Em/D
Em/D
Em/D
Em/D
Em/D
Em/Db
Em/Eb
Em/Eb
Em/Gb
Em/Gb
Em/Gb
Em/Gb
Em6
Em7
Em7
Em7
Em7
Em7
Em7
Em7
Em7
Em7
Em7
Em7(b5)
7th
Em7/add11
Em7/add11
Em7/add11
Em9
Em9
Em9
Emaj7
Emaj7
Emaj7
Emaj9
Emaj9
Emin/maj7
Emin/maj7
Emin/maj9
Esus
Esus
Esus
Esus
Esus
Esus2
Esus2
Esus2/A
Esus2/A
Esus2/Ab

or

Eo7

or
or
or

Em7/11
Em7/11
Em7/11

or
or
or
or
or

or
or
or
or
or
or
or

[x
[x
[0
[0
[0
[0
[x
[x
[x
[0
[x
[0
[3
[x
[0
[0
[0
[2
[0
[0
[0
[0
[0
[x
[x
[x
[x
[0
[x
[3

[0
[0
[3
[0
[0
[2
E#7
[0
E#7
[0
E#7
[x
E9(#7)
[0
E9(#7)
[4
[3
[x
[0
Esus4
[0
Esus4
[0
Esus4
[0
Esus4
[x
Esus4
[x
Eadd9(no3)[7
Eadd9(no3)[x
[x
[x
[0

2 2 0 1 0] (C E
3 5 4 5 3] (C E
2 0 0 0 0] (D E
2 0 0 3 0] (D E
2 2 0 3 0] (D E
2 2 0 3 3] (D E
x 0 12 12 12] (D
x 0 9 8 7] (D E
x 2 4 3 3] (D E
x 0 0 0 0] (D E
10 12 12 12 0] (D
2 2 0 2 0] (Db E
x 1 0 0 0] (Eb E
x 1 0 0 0] (Eb E
2 2 0 0 2] (E Gb
2 4 0 0 0] (E Gb
x 4 0 0 0] (E Gb
2 2 0 0 0] (E Gb
2 2 0 2 0] (Db E
2 0 0 0 0] (D E
2 0 0 3 0] (D E
2 2 0 3 0] (D E
2 2 0 3 3] (D E
x 0 0 0 0] (D E
x 0 12 12 12] (D
x 0 9 8 7] (D E
x 2 4 3 3] (D E
x 0 0 0 0] (D E
10 12 12 12 0] (D
x 0 3 3 0] (D E

G
G
G
G
G
G
E
G
G
G

0
0
x
2
2
2
2
x
x
2
x
x
x
6
0
0
2
0
x
9
2
0
2
2

G A B) : minor triad, mino


G A B) : minor triad, mino
G A B) : minor triad, mino
Gb G B) : minor triad, mino
Gb G B) : minor triad, mino
Gb G B) : minor triad, mino
Ab B) : major triad, major 7
Ab B) : major triad, major 7
Ab B) : major triad, major 7
Gb Ab B) : major triad, majo
Gb Ab B) : major triad, majo
G B) : minor triad, major 7
G B) : minor triad, major 7
Gb G B) : minor triad, majo
B) : no 3rd but a 4th from a
B) : no 3rd but a 4th from a
B) : no 3rd but a 4th from a
B) : no 3rd but a 4th from a
B) : no 3rd but a 4th from a
B): no 3rd but a 2nd from a
B): no 3rd but a 2nd from a
A B) : sus2 triad (altered
A B) : sus2 triad (altered
Ab B) : sus2 triad (altered

0
0
0
0
0
0
1
6
1
1
4
1
1
4
2
2
2
2
2
9
4
4
4
2

0
0
2
0
0
0
1
4
1
1
4
0
0
0
2
4
2
2
2
x
4
4
2
1

0
0
0
0
3
0
0
4
0
0
4
0
0
0
0
0
0
0
0
x
x
0
5
0

0]
3]
0]
2]
2]
0]
0]
0]
0]
2]
0]
0]
0]
0]
0]
0]
0]
0]
0]
0]
0]
0]
2]
2]

(D
(D
(D
(D
(D
(D
(Eb
(Eb
(Eb
(Eb
(Eb
(Eb
(Eb
(Eb
(E
(E
(E
(E
(E
(E
(E
(E
(E
(E

E
E
E
E
E
E
E
E
E
E
E
E
E
E
A
A
A
A
A
Gb
Gb
Gb
Gb
Gb

B) : minor triad (altered


B) : minor triad (altered
B) : minor triad (altered
B) : minor triad (altered
B) : minor triad (altered
B) : minor triad (altered
G B) : minor triad (alte
B) : minor triad (altered
B) : minor triad (altered
B) : minor triad (altered
E G B) : minor triad (alt
G B) : minor triad (altered
G B) : minor triad (altered
G B) : minor triad (altered
G B) : minor triad (altered
G B) : minor triad (altered
G B) : minor triad (altered
G B) : minor triad (altered
G B) : minor triad plus 6th
G B) : minor triad, minor 7
G B) : minor triad, minor 7
G B) : minor triad, minor 7
G B) : minor triad, minor 7
G B) : minor triad, minor 7
E G B) : minor triad, mino
G B) : minor triad, minor 7
G B) : minor triad, minor 7
G B) : minor triad, minor 7
E G B) : minor triad, min
G Bb) : diminished triad, m

Esus2/Ab
Esus2/Ab
Esus2/Db
Esus2/Eb
Esus2/Eb
Esus2/G
Esus2/G
Esus2/G
Esus2/G
Esus4/Ab
Esus4/C
Esus4/C
Esus4/D
Esus4/D
Esus4/Db
Esus4/Db
Esus4/Eb
Esus4/F
Esus4/G
Esus4/G
Esus4/G
Esus4/Gb
Esus4/Gb
F
F
F
F
F #5
F #5
F/D
F/D
F/D
F/E
F/E
F/E
F/E
F/E
F/Eb
F/Eb
F/G
F/G
F5
F5
F6
F6
F6
F6/add9
F7
F7
Fadd9
Fadd9
Faug/D
Faug/G
Fdim/D
Fdim/D

or
or
or
or
or
or

or
or

or
or
or
or
or

[0
[2
[x
[x
[x
[0
[0
[0
[2
[x
[0
[x
[0
[x
[0
[x
[x
[0
[3
[x
[x
[x
[x
Fmaj
[1
Fmaj
[x
Fmaj
[x
Fmaj
[x
Faug
[x
Faug
[x
[x
[x
[x
[0
[1
[1
[x
[x
[x
[x
[3
[x
F(no 3rd) [1
F(no 3rd) [x
[x
[x
[x
F6/9
[3
Fdom 7
[x
Fdom 7
[x
F2
[3
F2
[x
[x
[1
[x
[x

x
2
4
2
x
2
2
x
2
0
0
3
2
2
0
0
2
0
x
0
0
0
2
3
0
3
x
0
0
5
x
x
0
3
x
x
x
x
x
x
x
3
8
5
x
x
x
x
x
x
x
x
0
2
x

4 1 0 0] (E
2 1 0 0] (E
4 4 x 0] (Db
2 4 4 2] (Eb
4 4 4 0] (Eb
2 0 0 2] (E
4 0 0 0] (E
4 0 0 0] (E
2 0 0 0] (E
2 1 0 0] (E
7 5 0 0] (C
2 2 0 0] (C
0 2 0 0] (D
0 2 3 0] (D
2 4 2 0] (Db
7 6 0 0] (Db
1 2 0 0] (Eb
3 2 0 0] (E
2 2 0 0] (E
2 0 0 0] (E
5 4 5 0] (E
4 4 0 0] (E
4 2 5 2] (E
3 2 1 1] (C
3 2 1 1] (C
3 2 1 1] (C
3 2 1 1] (C
3 2 2 1] (Db
x 2 2 1] (Db
7 5 6 5] (C
0 2 1 1] (C
0 5 6 5] (C
3 2 1 0] (C
3 2 1 0] (C
2 2 1 0] (C
2 2 1 1] (C
3 2 1 0] (C
1 2 1 1] (C
3 5 4 5] (C
3 2 1 1] (C
3 2 1 3] (C
3 x x 1] (C
10 x x 1] (C
7 5 6 5] (C
0 2 1 1] (C
0 5 6 5] (C
0 2 1 1] (C
1 2 1 1] (C
3 5 4 5] (C
3 2 1 1] (C
3 2 1 3] (C
0 2 2 1] (Db
3 0 2 1] (Db
0 1 0 1] (D
0 1 0 1] (D

Gb Ab B) : sus2 triad (altered


Gb Ab B) : sus2 triad (altered
E Gb B) : sus2 triad (altered
E Gb B) : sus2 triad (altered
E Gb B) : sus2 triad (altered
Gb G B) : sus2 triad (altered
Gb G B) : sus2 triad (altered
Gb G B) : sus2 triad (altered
Gb G B) : sus2 triad (altered
Ab A B) : sus4 triad (altered
E A B) : sus4 triad (altered
E A B) : sus4 triad (altered
E A B) : sus4 triad (altered
E A B) : sus4 triad (altered
E A B) : sus4 triad (altered
E A B) : sus4 triad (altered
E A B) : sus4 triad (altered
F A B) : sus4 triad (altered
G A B) : sus4 triad (altered
G A B) : sus4 triad (altered
G A B) : sus4 triad (altered
Gb A B) : sus4 triad (altered
Gb A B) : sus4 triad (altered
F A) : major triad
F A) : major triad
F A) : major triad
F A) : major triad
F A) : augmented triad
F A) : augmented triad
D F A) : major triad (altered
D F A) : major triad (altered
D F A) : major triad (altered
E F A) : major triad (altered
E F A) : major triad (altered
E F A) : major triad (altered
E F A) : major triad (altered
E F A) : major triad (altered
Eb F A) : major triad (altered
Eb F A) : major triad (altered
F G A) : major triad (altered
F G A) : major triad (altered
F): root and 5th (power chord)
F): root and 5th (power chord)
D F A) : major triad plus 6th
D F A) : major triad plus 6th
D F A) : major triad plus 6th
D F G A) : major triad plus
Eb F A) : major triad, minor 7
Eb F A) : major triad, minor 7
F G A) : major triad plus 9th
F G A) : major triad plus 9th
D F A) : augmented triad (alt
F G A) : augmented triad (alt
F Ab B) : diminished triad (al
F Ab B) : diminished triad (al

Fdim/D
Fdim/Db
Fdim7
Fdim7
Fdim7
Fm
Fm
Fm/D
Fm/Db
Fm/Db
Fm/Eb
Fm/Eb
Fm6
Fm7
Fm7
Fmaj7
Fmaj7
Fmaj7
Fmaj7
Fmaj7
Fmaj7/#11
Fmaj7/#11
Fmaj9
Fsus
Fsus2
Fsus2
Fsus2/A
Fsus2/A
Fsus2/B
Fsus2/Bb
Fsus2/D
Fsus2/E
Fsus2/E
Fsus4/G
G
G
G
G
G
G
G
G
G #5
G #5
G/A
G/A
G/C
G/C
G/E
G/E
G/E
G/E
G/E
G/E
G/E

or
or
or
or
or
or
or
or
or

or
or
or
or
or
or
or
or
or
or

[x
[x
[x
[x
[x
[x
[x
[x
[x
[x
[x
[x
[x
[x
[x
F#7
[0
F#7
[1
F#7
[1
F#7
[x
F#7
[x
[0
[1
F9(#7)
[0
Fsus4
[x
Fadd9(no3)[x
Fadd9(no3)[x
[3
[x
[x
[x
[3
[x
[x
[x
Gmaj
[x
Gmaj
[3
Gmaj
[3
Gmaj
[3
Gmaj
[3
Gmaj
[x
Gmaj
[x
Gmaj
[x
Gaug
[3
Gaug
[3
[3
[3
[3
[x
[0
[0
[0
[0
[x
[x
[x

x 3 4 3 4] (D F Ab B) : diminished triad (al


4 3 4 0 4] (Db F Ab B) : diminished triad (al
2 0 1 0 1] (D F Ab B) : diminished triad, di
x 0 1 0 1] (D F Ab B) : diminished triad, di
x 3 4 3 4] (D F Ab B) : diminished triad, di
3 3 1 1 1] (C F Ab) : minor triad
x 3 1 1 1] (C F Ab) : minor triad
x 0 1 1 1] (C D F Ab) : minor triad (altere
3 3 1 2 1] (C Db F Ab) : minor triad (altere
4 6 5 6 4] (C Db F Ab) : minor triad (altere
8 10 8 9 8] (C Eb F Ab) : minor triad (alter
x 1 1 1 1] (C Eb F Ab) : minor triad (altere
x 0 1 1 1] (C D F Ab) : minor triad plus 6t
8 10 8 9 8] (C Eb F Ab) : minor triad, minor
x 1 1 1 1] (C Eb F Ab) : minor triad, minor
0 3 2 1 0] (C E F A) : major triad, major 7
3 3 2 1 0] (C E F A) : major triad, major 7
x 2 2 1 0] (C E F A) : major triad, major 7
x 2 2 1 1] (C E F A) : major triad, major 7
x 3 2 1 0] (C E F A) : major triad, major 7
2 3 2 1 0] (C E F A B) : major triad, majo
3 3 2 0 0] (C E F A B) : major triad, majo
0 3 0 1 3] (C E F G A) : major triad, majo
x 3 3 1 1] (C F Bb) : no 3rd but a 4th from
3 3 0 1 1] (C F G) : no 3rd but a 2nd from a
x 3 0 1 1] (C F G) : no 3rd but a 2nd from a
x 3 2 1 1] (C F G A) : sus2 triad (altered
x 3 2 1 3] (C F G A) : sus2 triad (altered
3 3 0 0 3] (C F G B) : sus2 triad (altered
3 5 3 6 3] (C F G Bb) : sus2 triad (altered
3 0 0 1 1] (C D F G) : sus2 triad (altered
3 3 0 1 0] (C E F G) : sus2 triad (altered
x 3 0 1 0] (C E F G) : sus2 triad (altered
3 5 3 6 3] (C F G Bb) : sus4 triad (altered
10 12 12 12 10] (D G B): major triad
2 0 0 0 3] (D G B) : major triad
2 0 0 3 3] (D G B) : major triad
5 5 4 3 3] (D G B) : major triad
x 0 0 0 3] (D G B) : major triad
5 5 4 3 3] (D G B) : major triad
x 0 4 3 3] (D G B) : major triad
x 0 7 8 7] (D G B) : major triad
2 1 0 0 3] (Eb G B) : augmented triad
x 1 0 0 3] (Eb G B) : augmented triad
0 0 0 0 3] (D G A B) : major triad (altered
2 0 2 0 3] (D G A B) : major triad (altered
3 0 0 0 3] (C D G B) : major triad (altered
3 0 0 0 3] (C D G B) : major triad (altered
2 0 0 0 0] (D E G B) : major triad (altered
2 0 0 3 0] (D E G B) : major triad (altered
2 2 0 3 0] (D E G B) : major triad (altered
2 2 0 3 3] (D E G B) : major triad (altered
x 0 12 12 12] (D E G B) : major triad (alte
x 0 9 8 7] (D E G B) : major triad (altered
x 2 4 3 3] (D E G B) : major triad (altered

G/E
G/E
G/F
G/F
G/F
G/Gb
G/Gb
G/Gb
G/Gb
G5
G5
G6
G6
G6
G6
G6
G6
G6
G6
G6
G6/add9
G6/add9
G6/add9
G7
G7
G7
G7/add11
G7sus4
G9
G9
Gadd9
Gadd9
Gaug/E
Gaug/E
Gb
Gb
Gb
Gb #5
Gb/Ab
Gb/E
Gb/E
Gb/Eb
Gb/F
Gb6
Gb7
Gb7
Gb7(#5)
Gb7/#9
Gb7sus4
Gbadd9
Gbaug/E
Gbdim/D
Gbdim/D
Gbdim/D
Gbdim/D

or
or

or
or
or
or
or
or
or
or
or
or
or
or
or
or
or

or
or

or

[0
[x
[1
[3
[x
[2
[2
[3
[x
G(no 3rd) [3
G(no 3rd) [3
[0
[0
[0
[0
[x
[x
[x
[0
[x
G6/9
[0
G6/9
[0
G6/9
[3
Gdom 7
[1
Gdom 7
[3
Gdom 7
[x
G7/11
[x
[3
Gdom 9
[x
Gdom 9
[x
G2
[3
G2
[3
[3
[x
Gbmaj
[2
Gbmaj
[x
Gbmaj
[x
Gbaug
[x
[x
[2
[x
[x
[x
[x
Gbdom 7
[2
Gbdom 7
[x
[2
[x
[x
Gb2
[x
[2
[x
[x
[x
[x

x 0 0 0 0] (D E G B) : major triad (altered


10 12 12 12 0] (D E G B) : major triad (alt
x 0 0 0 3] (D F G B) : major triad (altered
2 0 0 0 1] (D F G B) : major triad (altered
x 0 0 0 1] (D F G B) : major triad (altered
2 0 0 0 3] (D Gb G B) : major triad (altered
2 0 0 3 3] (D Gb G B) : major triad (altered
2 0 0 0 2] (D Gb G B) : major triad (altered
x 4 4 3 3] (D Gb G B) : major triad (altered
5 5 x x 3] (D G): root and 5th (power chord)
x 0 0 3 3] (D G) : root and 5th (power chord)
2 0 0 0 0] (D E G B) : major triad plus 6th
2 0 0 3 0] (D E G B) : major triad plus 6th
2 2 0 3 0] (D E G B) : major triad plus 6th
2 2 0 3 3] (D E G B) : major triad plus 6th
x 0 12 12 12] (D E G B) : major triad plus
x 0 9 8 7] (D E G B) : major triad plus 6th
x 2 4 3 3] (D E G B) : major triad plus 6th
x 0 0 0 0] (D E G B) : major triad plus 6th
10 12 12 12 0] (D E G B) : major triad plus
0 0 0 0 0] (D E G A B) : major triad plus
0 0 0 0 3] (D E G A B) : major triad plus
x 0 2 0 0] (D E G A B) : major triad plus
x 0 0 0 3] (D F G B) : major triad, minor 7
2 0 0 0 1] (D F G B) : major triad, minor 7
x 0 0 0 1] (D F G B) : major triad, minor 7
3 0 0 0 1] (C D F G B) : major triad, mino
3 0 0 1 1] (C D F G) : sus4 triad, minor 7t
0 0 0 0 1] (D F G A B) : major triad, mino
2 3 2 3 3] (D F G A B) : major triad, mino
0 0 0 0 3] (D G A B) : major triad plus 9th
2 0 2 0 3] (D G A B) : major triad plus 9th
x 1 0 0 0] (Eb E G B) : augmented triad (alt
x 1 0 0 0] (Eb E G B) : augmented triad (alt
4 4 3 2 2] (Db Gb Bb) : major triad
4 4 3 2 2] (Db Gb Bb) : major triad
x 4 3 2 2] (Db Gb Bb) : major triad
x 0 3 3 2] (D Gb Bb) : augmented triad
x 4 3 2 4] (Db Gb Ab Bb) : major triad (altere
4 2 3 2 2] (Db E Gb Bb) : major triad (altere
x 4 3 2 0] (Db E Gb Bb) : major triad (altere
x 1 3 2 2] (Db Eb Gb Bb) : major triad (altere
x 3 3 2 2] (Db F Gb Bb) : major triad (altere
x 1 3 2 2] (Db Eb Gb Bb) : major triad plus 6t
4 2 3 2 2] (Db E Gb Bb) : major triad, minor
x 4 3 2 0] (Db E Gb Bb) : major triad, minor
x 4 3 3 0] (D E Gb Bb) : minor 7th, sharp 5t
0 4 3 2 0] (Db E Gb A Bb) : major triad, min
4 4 4 x 0] (Db E Gb B) : sus4 triad, minor 7t
x 4 3 2 4] (Db Gb Ab Bb) : major triad plus 9t
x 4 3 3 0] (D E Gb Bb) : augmented triad (al
5 7 5 7 2] (C D Gb A): diminished triad (alt
0 0 2 1 2] (C D Gb A) : diminished triad (al
3 x 2 3 2] (C D Gb A) : diminished triad (al
5 7 5 7 5] (C D Gb A) : diminished triad (al

Gbdim/E
Gbdim/E
Gbdim/Eb
Gbdim7
Gbm
Gbm
Gbm
Gbm/D
Gbm/D
Gbm/E
Gbm/E
Gbm/E
Gbm/E
Gbm/E
Gbm7
Gbm7
Gbm7
Gbm7
Gbm7
Gbm7(b5)
7th
Gbm7(b5)
7th
Gbm7/b9
Gbmaj7
Gbsus
Gbsus2/Bb
Gbsus4/E
Gdim/E
Gdim/E
Gdim/Eb
Gdim/Eb
Gdim/Eb
Gdim7
Gdim7
Gm
Gm
Gm/E
Gm/Eb
Gm/F
Gm/F
Gm13
Gm6
Gm7
Gm7
Gm7/add11
Gm9
Gmaj7
Gmaj7
Gmaj7
Gmaj7
Gsus
Gsus
Gsus
Gsus

or

Gbo7

[x
[x
[x
[x
[2
[x
[x
[x
[x
[0
[0
[2
[x
[x
[0
[0
[2
[x
[x
[x

0
x
x
x
4
4
x
x
x
0
x
x
0
x
0
x
x
0
x
0

2
2
1
1
4
4
4
0
0
2
4
2
4
2
2
4
2
4
2
2

2 1 2] (C E
2 1 2] (C E
2 1 2] (C Eb
2 1 2] (C Eb
2 2 2] (Db Gb
2 2 2] (Db Gb
2 2 2] (Db Gb
14 14 14] (Db
2 2 2] (Db D
2 2 2] (Db E
2 2 0] (Db E
2 2 0] (Db E
2 2 0] (Db E
2 2 2] (Db E
2 2 2] (Db E
2 2 0] (Db E
2 2 0] (Db E
2 2 0] (Db E
2 2 2] (Db E
2 1 2] (C E

or

Gbo7

[x x 2 2 1 2] (C

Gb A) : diminished triad, mi

or
or

Gb#7
Gbsus4

or

Gm7/11

or
or
or
or
or
or
or
or

G#7
G#7
G#7
G#7
Gsus4
Gsus4
Gsus4
Gsus4

[0
[x
[x
[x
[x
[x
[x
[x
[x
[x
[x
[x
[3
[x
[3
[x
[3
[x
[0
[3
[3
[x
[x
[3
[2
[2
[3
[x
[x
[x
[x
[x

E
F
Gb
Gb
E
E
E
Eb
Eb
Eb
E
E
G
G
E
Eb
F
F
E
E
F
F
D
F
Gb
Gb
Gb
Gb
(C
D
D
D

Gb G A) : minor triad, mino


Gb Bb) : major triad, major
B) : no 3rd but a 4th from a
Ab Bb) : sus2 triad (altered
Gb B) : sus4 triad (altered
G Bb) : diminished triad (a
G Bb) : diminished triad (a
G Bb) : diminished triad (a
G Bb) : diminished triad (a
G Bb) : diminished triad (a
G Bb) : diminished triad, d
G Bb) : diminished triad, d
Bb) : minor triad
Bb) : minor triad
G Bb) : minor triad (altere
G Bb) : minor triad (altere
G Bb) : minor triad (altere
G Bb) : minor triad (altere
F G A Bb) : minor triad,
G Bb) : minor triad plus 6t
G Bb) : minor triad, minor
G Bb) : minor triad, minor
F G Bb) : minor triad, min
G A Bb) : minor triad, min
G B) : major triad, major 7
G B) : major triad, major 7
G B) : major triad, major 7
G B) : major triad, major 7
D G): no 3rd but a 4th fro
G) : no 3rd but a 4th from a
G) : no 3rd but a 4th from a
G) : no 3rd but a 4th from a

0 2 0
x 3 3
4 4 4
x 4 3
4 4 4
1 2 0
x 2 3
1 1 3
6 8 6
x 1 3
1 2 0
x 2 3
5 5 3
x 0 3
x 0 3
6 8 7
5 3 3
x 3 3
0 3 3
x 0 3
5 3 3
x 3 3
3 3 3
5 3 3
2 0 0
2 0 0
2 0 0
x 4 4
10 12
3 0 0
3 5 5
5 5 5

2 2] (Db
2 2] (Db
2 2] (Db
2 4] (Db
x 0] (Db
2 0] (Db
2 3] (Db
2 3] (Db
8 6] (Db
2 3] (Db
2 0] (Db
2 3] (Db
3 3] (D
3 3] (D
3 0] (D
8 6] (D
3 3] (D
3 3] (D
3 3] (D
3 0] (D
3 3] (D
3 3] (D
3 3] (C
3 5] (D
0 3] (D
3 3] (D
0 2] (D
3 3] (D
12 13 3]
3 3] (C
3 3] (C
3 3] (C

Gb
Gb
Gb
Gb
A)
A)
A)
D
Gb
Gb
Gb
Gb
Gb
Gb
Gb
Gb
Gb
Gb
Gb
Gb

A) : diminished triad (al


A) : diminished triad (al
A) : diminished triad (al
A) : diminished triad, di
: minor triad
: minor triad
: minor triad
Gb A) : minor triad (alte
A) : minor triad (altered
A) : minor triad (altered
A) : minor triad (altered
A) : minor triad (altered
A) : minor triad (altered
A) : minor triad (altered
A) : minor triad, minor 7
A) : minor triad, minor 7
A) : minor triad, minor 7
A) : minor triad, minor 7
A) : minor triad, minor 7
A) : diminished triad, mi

Gsus2
Gsus2
Gsus2
Gsus2
Gsus2/B
Gsus2/B
Gsus2/C
Gsus2/C
Gsus2/E
Gsus2/E
Gsus2/E
Gsus2/E
Gsus2/Gb
Gsus2/Gb
Gsus4/A
Gsus4/A
Gsus4/B
Gsus4/B
Gsus4/E
Gsus4/E
Gsus4/E
Gsus4/E
Gsus4/E
Gsus4/E
Gsus4/E
Gsus4/E
Gsus4/F

or
or
or
or

Gadd9(no3)[5
Gadd9(no3)[3
Gadd9(no3)[x
Gadd9(no3)[x
[3
[3
[x
[x
[x
[x
[x
[5
[5
[3
[x
[x
[3
[x
[3
[x
[x
[x
[x
[x
[x
[x
[3

x 0 0
0 0 0
0 0 0
x 0 2
0 0 0
2 0 2
5 7 5
x 0 2
0 2 0
0 2 0
0 2 2
0 0 0
x 4 0
x 0 2
5 7 5
x 0 2
3 0 0
3 0 0
x 0 0
3 0 0
3 2 0
3 2 0
x 0 0
x 0 5
10 12
5 5 5
3 0 0

3 5] (D
3 3] (D
3 3] (D
3 3] (D
0 3] (D
0 3] (D
8 3] (C
1 3] (C
3 0] (D
3 3] (D
3 3] (D
3 0] (D
3 5] (D
3 2] (D
8 3] (C
1 3] (C
0 3] (C
0 3] (C
1 0] (C
1 0] (C
3 0] (C
3 3] (C
1 0] (C
5 3] (C
12 13 0]
x 0] (C
1 1] (C

G
G
G
G
G
G
D
D
E
E
E
E
Gb
Gb
D
D
D
D
D
D
D
D
D
D
(C
D
D

A): no 3rd but a 2nd from a


A) : no 3rd but a 2nd from a
A) : no 3rd but a 2nd from a
A) : no 3rd but a 2nd from a
A B) : sus2 triad (altered
A B) : sus2 triad (altered
G A): sus2 triad (altered b
G A) : sus2 triad (altered
G A) : sus2 triad (altered
G A) : sus2 triad (altered
G A) : sus2 triad (altered
G A) : sus2 triad (altered
G A): sus2 triad (altered b
G A) : sus2 triad (altered
G A): sus4 triad (altered b
G A) : sus4 triad (altered
G B) : sus4 triad (altered
G B) : sus4 triad (altered
E G) : sus4 triad (altered
E G) : sus4 triad (altered
E G) : sus4 triad (altered
E G) : sus4 triad (altered
E G) : sus4 triad (altered
E G) : sus4 triad (altered
D E G) : sus4 triad (alte
E G) : sus4 triad (altered
F G) : sus4 triad (altered

C Major Scales

E||---------------------------------|---------------------------------|
B||--------------0-1-0--------------|---------------------------------|
G||----------0-2-------2-0----------|------------2-4-5-4-2------------|
D||----0-1-2---------------2-1-0----|------2-3-5-----------5-3-2------|

A||--3---------------------------3--|--3-5-----------------------5-3--|
E||---------------------------------|---------------------------------|

---------------------------------|---------------------------------|
---------------------------------|---------------------------------|
--------------4-5-4--------------|----------------5----------------|
--------3-5-7-------7-5-3--------|----------5-7-9---9-7-5----------|
--3-5-7-------------------7-5-3--|----5-7-8---------------8-7-5----|
---------------------------------|--8---------------------------8--|

--------------------------------------|
--------------------------------------|
--------------------------------------|
--------------7-9-10-9-7--------------|
-------7-8-10------------10-8-7-------|
--8-10--------------------------10-8--|

------------------------------------------||
------------------------------------------||
------------------------------------------||
------------------9-10-9------------------||
----------8-10-12--------12-10-8----------||
--8-10-12------------------------12-10-8--||

All major scales

C Major Scale First Position (Acending and Decending)

e|------------------------------0-1-3-3-1-0------------------------------B|------------------------0-1-3-------------3-1-0------------------------G|--------------------0-2-------------------------2-0--------------------D|--------------0-2-3---------------------------------3-2-0--------------A|--------0-2-3---------------------------------------------3-2-0--------E|--0-1-3---------------------------------------------------------3-1-0--D Major Scale First Position (Acending and Decending)

e|-----------------------------0-2-3-3-2-0-------------------------------B|-------------------------2-3-------------3-2---------------------------G|-------------------0-2-4---------------------4-2-0---------------------D|-------------0-2-4---------------------------------4-2-0---------------A|-------0-2-4---------------------------------------------4-2-0---------E|-0-2-3---------------------------------------------------------3-2-0---E Major Scale First Position (Acending and Decending)

e|-----------------------------0-2-4-4-2-0-------------------------------B|-------------------------2-4-------------4-2---------------------------G|-------------------1-2-4---------------------4-2-1---------------------D|-------------1-2-4---------------------------------4-2-1---------------A|-------0-2-4---------------------------------------------4-2-0---------E|-0-2-4---------------------------------------------------------4-2-0---F Major Scale First Position (Acending and Decending)

e|-----------------------------0-1-3-3-1-0-------------------------------B|-------------------------1-3-------------3-1---------------------------G|-------------------0-2-3---------------------3-2-0---------------------D|-------------0-2-3---------------------------------3-2-0---------------A|-------0-1-3---------------------------------------------3-1-0---------E|-0-1-3---------------------------------------------------------3-1-0---G Major Scale First Position (Acending and Decending)

e|-----------------------------0-2-3-3-2-0-------------------------------B|-----------------------0-1-3-------------3-1-0-------------------------G|-------------------0-2-------------------------2-0---------------------D|-------------0-2-4---------------------------------4-2-0---------------A|-------0-2-3---------------------------------------------3-2-0---------E|-0-2-3---------------------------------------------------------3-2-0---A Major Scale First Position (Acending and Decending)

e|-----------------------------0-2-4-4-2-0-------------------------------B|-----------------------0-2-3-------------3-2-0-------------------------G|-------------------1-2-------------------------2-1---------------------D|-------------0-2-4---------------------------------4-2-0---------------A|-------0-2-4---------------------------------------------4-2-0---------E|-0-2-4---------------------------------------------------------4-2-0---B Major Scale First Position (Acending and Decending)

e|-----------------------------0-2-4-4-2-0-------------------------------B|-----------------------0-2-4-------------4-2-0-------------------------G|-------------------1-3-------------------------3-1---------------------D|-------------1-2-4---------------------------------4-2-1---------------A|-------1-2-4---------------------------------------------4-2-1---------E|-0-2-4---------------------------------------------------------4-2-0----

Anisutide

Chorus 2x
Tabbed By Jon-Atle Larsen.

Scale Cm
Intro Guitar Part
G------7--8-------------------7--7h8----------D--10--------10---9----9h10----------10--9----

B--6/8--8--6-----------6h8--6-----------------G-------------8--7--8----------7h8--7----------

B------------8-9-11-12--G-----7-8-10--------------u should play this part very fast


D--10---------------------

E--8--10--11--8--7p8----8--10--11--8--7p8-----

E------6-7--6/8---------------------------------B--8-9-----------11--9---9/11--9--8-------------

E-----------------------------------7-10-8------B-9-8--------------------------8-9--------------G-----10-8-7-----------7-8-10-------------------u play this very fast


D------------10-9-8-10---------------------------

Keyboard Sax /Cm /G /Cm /G /G# /Fm /G /Cm /


Than guitar part
B------------------------8h9-8-G-------------7-8-10-12--------D-----7-8-10--------------------play fast
A--10---------------------------

Keyboard /G /C /
Song....
Anisutide.../Cm /Cm /Cm-D# /G# /Cm /Cm /Cm-D# /
.............../A# /G#-A# /D# /C4 /D# /G# /G /G /
Anisutide.../Cm /G#-A# /Cm/

1st BG music Guitar part


B--11--11--11--11--11/13--8----

E---------8-10-11-13-11-10-8------------B--8-9-11---------------------11-9----8---play very fast


G-----------------------------------10-----

B--9/11--11--11--11--11--13--8---------

E--------8-10-11-13-10h11-8-----------B-8-9-11---------------------11-9-8-----play very fast


G------------------------------------10--

B--8/9--9--9--9--9--11--9--8----G------------------------------10--

E-----------8-10--13-11-10-8------------B----8-9-11-------------------11-9-8-6---Last 8notes played like Mendoline


G-10--------------------------------------

B-------------------11--9---------------9-------------

G--10h/12--12--12--------10--10h12-12----10-10/12---

Keyboard Sax /Cm /G# /D# /G#-A# /Cm /Cm /--/

Song 1st BGM


Suriyuva soneyu../Cm -A# /D# /G#-A# /Cm /.....Guitar part
B--11h13--11-------------------G--------------12--10h12--8-----

Inyara kanasalu..../Cm-A# /D# /G#-A# /Cm-C /...Guitar part


B----------------11--11/13--11--9--------G--8h10--10/12----------------------------

Poorna Chandira.../Fm /Fm-cm /G /G /....Guitar part


G--10/12--13--12-10--

Naakaidi neene.../A# /G#-A# /D# /C4 /--/G# /G /G /

Baare Baare

Film : Naagara Haave

Scale Em
-E--------------------------------------------------------------B---------------------3-5-3------------------------------------G-----4-------4----4---------4-2-----2-----2------------------D--2-------2---------------------5-2------------------------------Bare----bare---andada--chelvina---tharee--------------------

-G-----2--------2-----------2--4--2-----------------------------D--2--------2--------2--5-----------5--2--0--5------5-------------Bare-----bare-----olavinaaaa--chilumeya---dhaaareee---------

-B-------------------3-5-3------3--------------------------------G--4-4-2--4-2------------4---4---4-2---------2-----------------D-------------5-2---------------------5-2-5------------------------Kanina--saneya--swagata---mareyalaaaaaaare-----------------

-B--------------------3-------------------------------------------G------------2--------4-----------2-4-2--2--4-------------------

-D--5--5-2--5--5-2------5------2-5------5--------------------------Chenduti--melinaa--hoonage---mareyalaaaaaaree----------------

-B--3-3-2-3--3-2---5--5-----2-3-5-3-2--2-3-----------------------G-----------------------4-------------4------------------------------Rupasirambeya--sangava--thoreyalaaaaare----------------------

-E------------------3--2-3----2-3-2---------2----------------------B--5---3--5-5-3---------------------5-3--5---5-----------------------Mauna-gauria---mohava---kaibida--laaaaaaaare------------------

-E--3----2-----------2---------------------------------------------B---------5-3-----3--------5-3------------------------------------G------------------------------4--------------------------------------Baaa-reeee-----baaaaaa-reeee----------------------------------

-B----3-5-3---------------------------------------------------------G--4-------4-2----2--------2------------2-4-2---------------------D--------------5-2-------------------2-5-------5-2-0-5-------5-------Andada--chelvnataaaaaare----olavina-cheluvina-dhaaaaare-----

Title: Aap jaisa koi


Album: Qurbani
Transcribed by: Kushy
Email: Kushyx@hotmail.com

Transcribed upon request, for Vijay, please let me know if its good and that.

Background Riff/Baseline, This is the most important part of this particular song.

----------------------------------------------------------------------------------------------------------------------------------------------------------------------------------------------------------------------------------------5--5-----------5--5----------5--5----------5-5------------7--7-------5-------------5--7-----------5--7-----------5--7--------5--7--------------7---------------------------------------------------------------------------------------

-----------------------------------------------------------------------------------------------------------------------------------------------------------------------------------------------------------------------------------------7--7-------5-----7--7-------5----7--7--------5--rpt-------------------------

----------7----------------7---------------7--------------------------------------------------------------------------------------------------------------Repeat This riff

Solo,

----------------10------10-------10--------------------------------12--10--12---------/12--------12------12--------12----8--10-----------/12---------------7----------------------------------------------------7-------------------------------------------------------------------------------------------------------------------------------------------------------------------------------------------------------------------------------------------------------------These two bars contain the guitar solo after the intro riff and throughout

--10--------------------------------------------------------------------------

------12--8--10----------------------------------------------------------------------------------7^9---------------------------------------------------------------------------------------------------------------------------------------------------------------------------------------------------------------------------------------------------------------------------------------------the song......... the last note is 7 bend it till 9 then back to 7

Chords,

The chords for this song are easy, and particularly good 2 sing along 2. Its basically just G a

AM

--3------------------------------------0---------------------------------------3------------------------------------1---------------------------------------0------------------------------------2---------------------------------------0------------------------------------2---------------------------------------2------------------------------------0---------------------------------------3------------------------------------0-------------------------------------Aap jaisa koi meri zindagi me aiye to baat ban jaayee........

--3----------------------------------------------------------------------------3----------------------------------------------------------------------------0----------------------------------------------------------------------------0---------------------------------------------------------------------------

--2----------------------------------------------------------------------------3--------------------------------------------------------------------------Baat banjaaye...............etc etc easy.

Socha Hai : Rock on

intro
E5
---------------------------------------------------------14---0-2-4---4-6-7--4-2----14-----------------12------------------

---------------------------------------------------------14---12-14-16---16-18-19--16-14---12----------------12-----------------

post intro.......
E------------------------------------------------------------------------------------------------------B---3--3--3--3---3--3--3--3---3--3--3--3---3--3--3--3-------------------------------------------G-----2--2--2--2---0--0--0--0---4--4--4--4---2--2--2--2------------------------------------------ X2
D------------------------------------------------------------------------------------------------------A-----------------------------------------------------------------------------------------------------E-------------------------------------------------------------------------------------------------------

leads
---------------------------------------------------------------------------------------------------------------------------------------------7-7-9---7-----7-9---7-------------------------------10----------10-----10-9-7-9---7-----7-9-----------------------------------10----10----

--------------------------------------------------------------------------------------------------------------------------------------------------7-7-9---7-----7-9---7--7-9-------------------------------10----------10-------9-7---7-----7-9------------------------------------10----------10---------

---------------------------------------------------------------------------------------------------------------------------------------------------19-21b-21-19-----19-21b-21-19-----21b-21-19-21-19--------7s19-21---------------19----------------19-------------------21-19--------------------------------------------------------------------------------------------------------------------------------------------------

-------------------------------------------------------15-17b-17-15-----15-17b-17-15---------14-16----------------14---------------14----------------------------------------------------------------------------------------------------------------------------------------------------------to be played fast


--------------14-15-17-15---------------------------------------15-17---------------17-15---------------------------16-14-----------------------------16-14------------------------------------------------------------16-14------------------------------------------------------------17-14-12b--------------------------------------------------------------

D....................., Bm....................

aasman hai neela kyon, paani geela geela kyon


.G.................A
gol kyon hai zameen
D........................, Bm.................
silk main hai narmi kyon, aag main garmi kyon
.G.......................A..
do aur do panch kyun nahi
D...................., Bm......................
ped ho gaye kam kyon, teen hain ye mausam kyon
.G.................A..
chand do kyon nahin
D........................, Bm.................
duniya mai hai jung kyon, behta lal rang kyon
.G........................A....
sarhadein hai kyon har kahin
D......................A....
socha hai, ye tumne kya kabhi
D.....................A.......
socha hai, ki hai ye kya sabhi
D........., ..A................G.....
socha hai, socha nahin to socho abhi

(Rest is same sequence)


bahti hai kyon har nadi, hoti kya hai roshini
barf girti hai kyon
Dost kyon hai ruthte, taare kyon hai tutte
Badalon mai bizli hai kyon
Socha hai, ye tumne kya kabhi
socha hai, ki hai ye kya sabhi
Socha hai, socha nahin to socho abhi

Sanatta sunai nahi deta, aur hawaein dikhai nahi deti


Socha hai kya kabhi, Hota hai ye kyun

aasman hai neela kyon......


Socha hai...... x3

Rock On - Pichle Saat Dino Mein Original Chords:


Introduction:

Well am Ronald, I have been playing Guitar Since Two n a half years now n this is mah Fi
would like it..!

Just try them up.., N Do Give Comments And yeah, Dont send me any fixes in the thread be
each and every line and word of this post, nd even if then u think tat a Possible Genuine Fix
Appreciated..! Though I dont think anything else is required for this song now..! Just read t
why am sayin so..!
Note :

* Just strum the upper three strings only for each chord bcoz all are power chords.. except w
* Listen to the original song, n practice using these chords with it.. you will get perfect throu

Bibliography : U - Up stroke on Upper Three Strings


D - Down stroke on Upper three strings
u - Up stroke on 3rd and 4th string
Du - Consecutive fast D nd u Stroke
M - Down mute stroke
Eg - Well To play Eg play it as a power chord only or it will sound bad in the song and just s
6th, 5th and 4th..!
e|--3----|---B|--3----|--G|--2----|--D|--2----|--A|--2----|--E|--0----|--How to play :
Well for the Intro and Verses,
meri laundry ka ek bill
ik aadhi padhi novel
ek ladki ka phone number
mere kaam ka ek paper
Chords: G E are used with variations...
Strumming:

When on,
G - Du
Eg - UM UM UM DU

The First one Down stroke on 6th nd 5th string, n then up stroke on 4th n 3rd.., then three do
down stroke on G again.. N You can play the intro in G nd E but you may also.. Alter G like
Firstly,
G4
e|--3----|--B|--3----|--G|-------|--D|-------|--A|--2----|--E|--3----|---

then, hold it like this n then three up stroke with muting variations on the 4th 5th and 6th stri
stroke, n do listen to the Song for Perfection..!
Eg
e|--3----|---B|--3----|--G|--2----|--D|--2----|--A|--2----|--E|--0----|--Demo:
Afterwards :
then, the song follows as..
BCAG
mere, taash se heart ka king
BCAG
mera, ik chaandi ka ring
BCAG
pichhle saat dinon mein maine khoya
(A upper three strings once n then Drum beats)
kabhi khud pe hansa main,
aur
kabhi khud pe roya

after it the second verse follows same as above..!


then guitar solo.. I cnt Figure it out..
N then In The end It follows as:
Eg G
kaise, bhoolun, saatva jo din aaya
CB
kisi ne, tumse, ik party mein milwaaya
Eg G C B
kaisa, pal tha, jis pal maine tumko pehli baar dekha tha
BCAG
hum jo mile pehli baar
BCAG
maine jaanaa kya hai pyaar
BCAG
maine hosh bhi khoya dil bhi khoya
(A let it ring...)
kabhi khud pe hansa main,
aur
kabhi khud pe roya
maine pichhle saat dino mein
ye sab hai, khoya..

Tum Ho Toh - Rock On, Original Tabs And Chords.., Ch

Tabs : Well these tabs are Accurate, and needs no Change. These are the basic tabs for the S
Note: s - Slide

Well you can play the tabatulars of Tum Ho Toh through this thread if you have a basic kno
board, This Tabatulure will provide you a lesson to play the song as well a practice session t
whats the basic phenomena behind The Chords of the Songs

,..!
You have any doubt about their accuracy the just try thm out..!
Verse:
G A DsE
GG F E F G
AGGAD
E D A G A C#sD
G A EsGsE
GG F E F G
AGGAD
E D A G A C#sD
EsF E C A AAA BB A D F E FF BsC
Chorus:
CDCD
CDCD
CDCD
DECA

CDCD
CDCD
CDCD
DECA
D E DD E DD
G A C D E F E F G A B C D# C
Chords:
Verse:
C
TuM HO TOH GAATA HAI DIL
Dm G
TuM NAHIN TOH GEet kAHAN
C
TuM HO TOH HAI SAB HAASIL
Dm G
TuM NAHIN TOH kYA HAI YAHAN
F Am
TuM HO TOH HAI.

GFC
SAPNON kE JAISA. HASEEN Ek SAMAA
Chorus:
GE
JO TuM HO TOH YE LAGTA HAI
Am F
ke MIl. GAYEE HAr kHuSHI
GE
JO TuM NA HO YE LAQTA HAI
Am F
kE HAr khushi MEIN kAMEE
F G C................Am...............F.........C
TuM kO HAI MAANGtl YE ZINDAGI
And the further Songs follows the same...!

Dheere Dheere se mere ashiqui


Intro (Time:- 00:13)
E
B
G
D
A
E

|---6/7---6/7-6-----|-------------|
|----h-----h----9---|---7-7-7/9---|
|-------------------|--------h----|
|-------------------|-------------|
|-------------------|-------------|
|-------------------|-------------|

E
B
G
D
A
E

|---6/7-9-9/11-11---|---6/7-6-----|---------------|
|----h-----s--------|----h----9---|---5/7-7-7\5---|
|-------------------|-------------|----s-----s----|
|-------------------|-------------|---------------|
|-------------------|-------------|---------------|
|-------------------|-------------|---------------|

E
B
G
D
A
E

|---6/7---6/7-6-----|-------------|
|----h-----h----9---|---7-7-7/9---|
|-------------------|--------h----|
|-------------------|-------------|
|-------------------|-------------|
|-------------------|-------------|

h=hammer
p=pull
s=slide
Fill.1 (Time:- 2:04 & 3:49)
E
B
G
D
A
E

|------------6/7-6----------------|
|---7/9-9~----s----9--7/9-9p7\4---|
|----h-----------------h-----s----|
|---------------------------------|
|---------------------------------|
|---------------------------------|

Fill.2 (Time:- 1:15)


(Not playd on guitar in the song)
E
B
G
D
A
E

|---4-7~---7-4-7-4---6------|-----6~---9-6---4-6-4---|
|------------------7---7~---|---7----------7---------|
|---------------------------|------------------------|
|---------------------------|------------------------|
|---------------------------|------------------------|
|---------------------------|------------------------|

h=hammer
s=slide

~=let ring
Solo (Time:- 3:17)
E
B
G
D
A
E

|---7-6----------|---7-6------------|
|-------9/11-9---|-------9-9/11-9---|
|--------s-------|----------s-------|
|----------------|------------------|
|----------------|------------------|
|----------------|------------------|

E
B
G
D
A
E

|------------------------------------11-9---------|--------------9-11-9|---11-9---------------------9-11-12------12-11---|--------11-12-------|--------11-11-(11)-(11)--11----------------------|---11---------------|-------------------------------------------------|--------------------|-------------------------------------------------|--------------------|-------------------------------------------------|---------------------

p=pull
s=slide
()=notes played softly
Listn 2 the song 2 get the propr timings 4 da intro, fill
Chords:
G#m
F#
Dheere dheere se meri Zindagi main aana.
G#m
Dheere dheere se dil ko churana.
G#m
F#
Tumse pyar hame hai kitna jaane jaana.
G#m
Tumse mil kar tum ko hai batana.... x 2 times.
** Play Fill.2
G#m
F#
Jabse tujhe dekha dil ko kahin aaram nahin.
G#m
Mere honton pe ek tere siwa koi naam nahin.
** Play Fill.1
G#m
F#
Aapna bhi halat tumhare jaisa hai saajan.
G#m
Bas yaad tujhe karte hain aur koyi kam nahin.
G#m
F#
Ban gaya hun main tera deewana.
G#m
Dheere dheere se dil ko churana.
G#m
F#
Oohh dheere dheere se meri zindagi mein aanaaa.
G#m

Dheere Dheere se dilko churana.


** Play Solo
G#m
F#
Tune bhi aaksar mujhko jagaya raaton mein.
G#m
Aur neend churayi meethi meethi baaton mein.
** Play Fill.1
G#m
F#
Tune bhi beshaak mujhko kitna tarpaya.
G#m
Phir bhi teri har ek ada pe yaad aya.
G#m
F#
Aaja Aaja aab kaisa sharmaanaa. ;)
G#m
Dheere dheere se dil ko churana.
G#m
Oohh dheere dheere se meri zindagi mein
G#m
Dheere Dheere se dilko churana.
G#m
F#
Tumse pyar hame hai kitna jaane jaana.
G#m
Tumse mil kar tum ko hai batana.... x 2
G#m
Oohh dheere dheere se meri zindagi mein
G#m
Dheere Dheere se dilko churana.

F#
aanaaa.

times.
F#
aanaaa.

Allah ke bande - Transcribed by Rahul Raj S

G................................D................ ........G...
Toota toota ek parinda aise toota, Ke phir jud na paaya.
Loota loota kisne usko aise loota ke phir ud na paaya...
G................................D................ ........G...
Toota toota ek parinda aise toota, Ke phir jud na paaya.
Loota loota kisne usko aise loota ke phir ud na paaya...
G..................G/Em
Girta hua woh aasmaan se,
C...................G
aakar gira zameen par,
G..............................G/Em....................C...................D
khaabon mein phir bhi baadal hi the woh kehta raha magar...
......G.........G/Em
Ke allah ke bande hans de
C...........G
Allah ke bande
G..........G/Em
Allah ke bande hans de
C..................D
Jo bhi ho kal phir aayega
Allah ke bande hans de
Allah ke bande
Allah ke bande hans de
Jo bhi ho kal phir aayega
G...............D#....F.....G..................D#. .....F.....D...

...................D ..-..G......G..................F
Kho ke apne par hi toh usne tha udna seekha
F..................D ..-..G
Kho ke apne par hi toh...
G..................D ..-..G......G..................F
Kho ke apne par hi toh usne tha udna seekha
F..................G....................D...
Kal ko apne saath mein lele dard bhi tere kaam aayega
Allah ke bande hans de
Allah ke bande

Allah ke bande hans de


Jo bhi ho kal phir aayega
Tukde tukde ho gaya tha har sapna jab woh toota
Tukde tukde ho gaya tha
Tukde tukde ho gaya tha har sapna jab woh toota
Bikhre tukdon mein allah ki marzi ka manzar paayega
Allah ke bande hans de
Allah ke bande
Allah ke bande hans de
Jo bhi ho kal phir aayega

Enrique Inglesia Dont You Forget About M


Chris - cadams102@nc.rr.com :)

Part A (verse)
Bm

|---------------------------------------|
|------2h3--------2h3-------------------|
|---------4----------2--1------1--------|
|----4----------4-----------2------2----|
|--2----------2-----------2---2-2---2--|
|-----------------------0---------------|

|--------------------------------------||

|------0h2------0h2---2------2--------||
|---------2---------2-----2------2-----||
|----2--------2---------2---2-2--2---||
|--0--------0---------0---------------||
|--------------------------------------||
Bridge / Chorus
Fm

Dsus

|-2----2-0-|----------0----------------------|
|-2----2-0-|------3------3----------0-------|
|-2----2-1-|-----2---2-2---------1-------1--|
|-4----4-2-|---0----------------2---2---2----|
|-4----4-2-|--------------------------------|
|-2----2-0-|------------------0--------------|
A (something)

Fm

|-----------------------------------|
|--------0--------------2----------|
|-----2------2-------2------2-------|
|---2---2--2-------4---4--4---------|
|-0--------------------------------|
|----------------2------------------|

Solo:
-----------------------------------------------------------------|
-----2-----------------------------------------------------------|
-2h4---4-4h2/4--------------6-9---4\2--4-4/6-6-------------------|

----------------------6h7-9--------------------------------------|
-----------------------------------------------------------------|
-----------------------------------------------------------------|

------------------------------------------------------------------|
----10---9-----7h5-5/7----7h9h7h5------------5---------7h5h7------|
-6/----6----6-------------------------1h2/6----4h2----------------|
---------------------------------------------------4--------------|
------------------------------------------------------------------|
------------------------------------------------------------------|

It's not too hard to figure out where the words fit it, if you need help with that

at the other tabs for placement, it's the same chords just with the picking patter
out.

Enjoy!

Tuning-

E A D G B E

Tabbet by: ..:pigiyo:.. pygi@net.hr

Bm

-224432

-022100

-002220

-xx0232

F#m -244222
-----------------/

Bm
they say love is just a game

they say time can heal the pain

Bm

sometimes you win, sometimes you lose

Bm

and i guess i'm just a fool

A
i keep holding on to you

i told you once you were the one


you know that i'll die for you
Although it hurts to see you go
oh this time you should know

F#m

i won't try to stop you

don't you forget about me baby

F#m

don't you forget about me now

some day you'll turn around and ask me, why did i let you go

so you try to fake a smile


you don't wanna break my heart
i can see that you're afraid
but baby its to late
coz I'm already dying

dont you forget about me baby


dont you forget about me now
some day you'll turn around and ask me, why did i let you go

-----------------------------------------------------------------|
-----2-----------------------------------------------------------|
-2h4---4-4h2/4--------------6-9---4\2--4-4/6-6-------------------|
----------------------6h7-9--------------------------------------|
-----------------------------------------------------------------|
-----------------------------------------------------------------|

------------------------------------------------------------------|
----10---9-----7h5-5/7----7h9h7h5------------5---------7h5h7------|

-6/----6----6-------------------------1h2/6----4h2----------------|
---------------------------------------------------4--------------|
------------------------------------------------------------------|
------------------------------------------------------------------|..F#m D,ref

Somebody s Me

Intro:

G, C

(x2)

Versus 1

You, Do you remember me

Like I remember you

Am

Do you spend you life going back in your mind to that time

Cause I, I walk the streets alone

I hate being on my own

C
And everyone can see that,

Am

I really fell And I'm going through hell

Am

Thinking about you with somebody else


Chorus:

G (with

add9)

Somebody wants you Somebody needs you

Am

Somebody dreams about you every single night

Somebody can't breathe Without you it's lonely

Am

And somebody hopes that one day you'll see

G (w/hammer

ons)

That somebody's me

G (w/hammer

ons)

That somebody's me
Verse 2

How, How did we go wrong


It was so good and now it's gone
And I pray at night, That our path soon will cross,

and what we had is a lost


Cause your always right here in my thoughts

Chorus:

Somebody wants you Somebody needs you


Somebody dreams about you every single night
Somebody can't breathe Without you it's lonely
And somebody hopes that someday you'll see That somebody's me

Bridge:

Am

You will alway be in my life Even if I'm not in your life

A,

Cause you're in my memory

Verse

You When you remember me And before you set me free


Oh, listen please

Chorus:

Somebody wants you


Somebody needs you
Somebody dreams about you every single night
Somebody can't breathe Without you it's lonely
And somebody hopes that someday you'll see
That somebody's me
That somebody's me
That somebody's me
That somebody's me

Dire Straits - Sultans of Swing

Dm
e-------------------------------------5-8-5---------------B-------3--3-3------------------6----6-----6-5h6p5--------G---2-2-2--2-2--5-5-5-7-----7----7--7-------------7--5-7--D-0-0-0-0--0-0--5-5-5-7--5h7---7------------------------7-A-0--------------x-5--------------------------------------E----------------------------------------------------------

Dm

Bb

A7

You get a shiver in the dark, It's raining in the park, but meantime
e------------------------------------

B---4b6-6r4b6r4---------------------G-----------------------------------D-----------------------------------A-----------------------------------E------------------------------------

Dm

Bb

South of the river you stop and you hold everything


e----------------------5B-----10---10-11-10----6G-------------------9--5D-2s11--11-11----------7A-----------------------E------------------------

C
A band is blowing Dixie double four time

e-----------------------------------B--5---5-6-5-6-5--3-----------------G--5---5-5-5-5-5--3-----------------D---x-x--7--------3-----------------A-----------------------------------E------------------------------------

Bb

Dm

Bb

You feel all right when you hear that music ring
e----------------------------------B-------6-----x-3-6--x-3s5---------G----7---7s2--x-3-3--x-3s5--------5D-5h7-7-------x-3----x-3s5-----5h7-A---------------------------5s7----E-----------------------------------

Dm

Bb

Well now you step inside but you don't see too many faces
e-----------------------------------B-10--10---10-11-10-10-8--8--6-----G-----------------------------------D---11--11-11-11-11-------9--7-----A-----------------------------------E------------------------------------

Dm

Bb

Coming in out of the rain to hear the jazz go down


e-10p9------------------------------B-----10----------------------------G-------9p7p6-----------------------D------------7-5--------------------A---------------7--------------------

E------------------------------------

C
Competition in other places

e---------------------------------B-5-5--6-6-5-3--------------------G-5-5--5-5-5-3--------------------D-5-5--7-7-5-3--------------------A---------------------------------E----------------------------------

Bb

Dm

But the horns, they're blowing that sound


e----10-8---------------------------B----10---10-x--3-6-x-x--3s5-5-5----G----10-9-10-x--3-3-x-x--3s5-5-5----D-x-x-----------3-3-x-x--3s5-5-5----A-----------------------------------E------------------------------------

Bb

Way on down south


e-----------------------------------B----x-3-6--3s5---------------------G--5-x-3-3--3s5----------------------

Bb

D-5--x-3----3s5---------------------A-----------------------------------E------------------------------------

Dm

Bb

way on down south London town


C

Dm

C Bb

e------------------------------------------------------------------B---6-5-3---6--6p5-x-5-------10-8-8-8--6-5-3--6--6p5-x-5-----------G---5-5-3---5-5----x-5--5s10-10-----9--5-5-3--5-5----x-5----------5D---7-5-3---7--7p5-x-5-----------------7-5-3--7--7p5-x-5-------5h7-A---------------------------------------------------------x-5s7----E-------------------------------------------------------------------

Dm

Bb

You check out Guitar George,

A7

he knows all the chords

e------9-8-9------10-10-------------B------8-7-8------10-10-------------G------9-8-9--10--10-10-------------D-1s7-------------------------------A-1s7-------------------------------E------------------------------------

Dm

Bb

Mind he's strictly rhythm he doesn't want to make it cry or sing

e-----5------9---------9-7-----------------8------------B----5-5-8b10--pbr8(10)-----8b10r8b10r8b10--pbr8(10)p6--G-7b9----------------------0----------------------------D-------------------------------------------------------A-------------------------------------------------------E--------------------------------------------------------

Bb

Yes, and an old guitar is all he can afford


e-----------------------------------B----8-8s6-6-6-6--------------------G-7s9--9s7-7-7-7--------------------D-----------------------------------A-----------------------------------E------------------------------------

Dm

Bb C

When he gets under the lights to play his thing


e-----10-8--------------------------------------B----------10-10-x-3-x-6--3-3s5-5---------------G-9s10---9-10-10-x-3-x-3--3-3s5-5-------5-5-5s7-D------------------3-x----3-3s5-5----5h7-7-7----A---------------------------------5s7-----------E------------------------------------------------

Dm

Bb

A7

And Harry doesn't mind if he doesn't make the scene


e-----------------------------------B---8-let-ring--8-------------------G-7b9r7b9r7b9r7b9-------------------D-----------------------------------A-----------------------------------E------------------------------------

Dm

Bb

He's got a daytime job he's doing alright


e------9---------------5---8---------B-12b14--10--------------0-8b10------G----------9h10p9--7-6-4-0-----------D---------------------7--------------A------------------------------------E-------------------------------------

Bb

He can play honky tonk like anything


e-----------------------------------B--5--5-x-6-6-5-x-3-----------------G--5--5-x-5-5-5-x-3-----------------D--5--5-x-7-7-5-x-3-----------------A------------------------------------

A7

E------------------------------------

Dm

Bb

Saving it up for Friday night


e----------------------------------B------6-5p4---3-6-3-3s5-5---------G----7------7--3-3-3-3s5-5---------D-5s7-7--------3-3-3-3s5-5---------A----------------------------------E-----------------------------------

Bb

With the Sultans,


e-----------------------------------B--x-3-6--3-3s5-5-------------------G--x-3-3--3-3s5-5-------------------D--x-3----3-3s5-5-------------------A-----------------------------------E------------------------------------

Dm
with the Sultans of Swing
Dm C Bb

Dm

C Bb

e-----------------------------------------------------------------B---6-5-3---6--6p5-x-5-------10-8--8--6-5-3--6--6p5-x-5------------

G---5-5-3---5-5----x-5--5s10-10--0-9--5-5-3--5-5----x-5----------5D---7-5-3---7--7p5-x-5----------------7-5-3--7--7p5-x-5-------5h7-A--------------------------------------------------------x-5s7----E------------------------------------------------------------------

Dm

Bb

A7

And a crowd of young boys they're fooling around in the corner


e-------12-------------------13-----B-12b14----pbr12(14)p10-------------G----------------------12s14-14-----D-----------------------------------A-----------------------------------E------------------------------------

Dm

Bb

A7

Drunk and dressed in their best brown baggies, and their platform soles
e-12p9---------5-----------------------B-----10-------------------------------G-------9--7-6-0-x---pbr12(14)-12b14---D----------------x---------------------A--------------------------15-----15---E---------------------------------------

Bb

They don't give a damn about any trumpet playing band


e-----------------------------------B----8-8s6-6-6-6--------------------G-7s9--9s7-7-7-7--------------------D-----------------------------------A-----------------------------------E------------------------------------

Dm

Bb

It ain't what they call rock and roll


e-----------------------------------B--------------3-6-x-3s5------------G-----7--6-----3-3-x-3s5------------D-5s7-7-7-7s2--3---x-3s5------------A-----------------------------------E------------------------------------

Bb
And the Sultans,

e-----------------------------------B--3-6-3--3s5-5---------------------G--3-3-3--3s5-5---------------------D--3-3-3--3s5-5---------------------A-----------------------------------E------------------------------------

Dm
yeah the sultans, they played Creole.
Dm C Bb

Creole

Dm

Creole.
C Bb

ah ah

e------------------------------------------------------------------B---6-5-3---6--6p5-x-5-------10-8-8-8--6-5-3--6--6p5-x-5-----------G---5-5-3---5-5----x-5--5s10-10-----9--5-5-3--5-5----x-5----------5D---7-5-3---7--7p5-x-5-----------------7-5-3--7--7p5-x-5-------5h7-A---------------------------------------------------------x-5s7----E-------------------------------------------------------------------

1. instrumental

Ah ah
e-----------------------------------------------------------B--8b10--8b9s10-8b9s10--pbr8(10)--6h8p6--5h6p5--------------G-----------------------------------------------------------D----------------------------------------------------11-----A---------------------------------------------------x-------E--------------------------------------------------x---------

e------9-12b13b14r12--10----------------------------------------B---10------------------10-------10-13-11h13p11--9-10---11-x-x--G--9-----------------------10--------------------------x--------D----------------------------12----------------------------------

A---------------------------------------------------------------E----------------------------------------------------------------

e------------------------------13----------------12h13-12------------B-9-10-10--10----------13--------13----------------------13----------G----0--0---0-----12b14--12bh14----(14)r12-10-10-----------12-14p12--D------------x-x-----------------------------------------------------A--------------------------------------------------------------------E---------------------------------------------------------------------

e---------------------------------------13p10--10-----------------B-13-13--13b15-(15)r13--13b15-13b15r13--10---10---13b15-10--------G---------------------15----------------------------------12-10s3-D-----------------------------------------------------------------A-----------------------------------------------------------------E------------------------------------------------------------------

e-------------------------------------------------------------------B---3-6-3---5-6s8-6-5h6s8s3---3-6-3-3s5-------------8---------------G--3-------5-----------------3------3s5--5--7-5-7bh9-(9)r7-5-7-7s2--D-3-------5-----------------3-------3s5-5---------------------------A-------------------------------------------------------------------E--------------------------------------------------------------------

e-------------------------------------------------------------------

B---6-5-3---6--6p5-x-5-------10-8-8-8--6-5-3--6--6p5-x-5-----------G---5-5-3---5-5----x-5--5s10-10-----9--5-5-3--5-5----x-5----------5D---7-5-3---7--7p5-x-5-----------------7-5-3--7--7p5-x-5-------5h7-A---------------------------------------------------------x-5s7----E-------------------------------------------------------------------

Dm

Bb

And then the man he steps right up to the microphone


e---------------------------------------B-------10----12s14-14---14s17--15---15-G---------------------------------------D--5s11-11-11-12s14----14--s17----15-15-A---------------------------------------E----------------------------------------

Dm

Bb

And says at last just as the time bell rings


e----9--9--------------------------B----8--8-let-ring-----------------G----9--9--------------------------D----------------------------------A-----------------------------------

E-----------------------------------

C
goodnight now it's time to go home'

e-----------------------------------B-----8--8-8-----11-----------------G--7s9-9-9----10-10-----------------D-----------------------------------A-----------------------------------E------------------------------------

Bb

Dm

Then he makes it fast with one more thing


e-----------------------------------B------6-6--------3-6-x--3s5-5------G----7--7-7--7-x--3-3-x--3s5-5------D-5s7-7-----7--x--3---x--3s5-5------A-----------------------------------E------------------------------------

Bb
'We are the Sultans,

e-----------------------------------B--3-6-x--3s5-5---------------------G--3-3-x--3s5-5----------------------

D--3---x--3s5-5---------------------A-----------------------------------E------------------------------------

Dm
we are the sultans of Swing
C

Dm

C Bb

e------------------------------------------------------------------B---6-5-3---6--6p5-x-5-------10-8-8-8--6-5-3--6--6p5-x-5-----------G---5-5-3---5-5----x-5--5s10-10-----9--5-5-3--5-5----x-5----------5D---7-5-3---7--7p5-x-5-----------------7-5-3--7--7p5-x-5-------5h7-A---------------------------------------------------------x-5s7----E-------------------------------------------------------------------

2. instrumental
e---------------------------------------------------------B-8b10--8-6-8-6---pbr8(10)-8-5h8p5-3h5p3------------------G--------------7------------------------5h7p5-5---5-------D---------------------------------------------5h7p5-------A---------------------------------------------------5h7p5-E----------------------------------------------------------

e-------------------------------8-------8-------8-------8--------B--x-10p8--8------------8h10p8--8h10p8--8h10p8--8h10p8--8h10p8----

G-x------10-10-7--7--7h9------9-------9-------9-------9-------9--D----------------------------------------------------------------A----------------------------------------------------------------E-----------------------------------------------------------------

e--8--------------------10------------------------------------------B--8h10-8-------------10--13p10--10---------------10-------10-----11G---------x-x-x--12b14---------12--12p10--------10--12----x----0-x--D-------0-x-x-x-------------------------12-10h12---------x------x---A-------------------------------------------------------------------E--------------------------------------------------------------------

e-----------12-------10-x-x--13p10--10-13p10--10-13p10--10-13p10--10-B-x-x-11bh13--(13)r11-------------10--------10--------10--------10---G--------------------------------------------------------------------D--------------------------------------------------------------------A--------------------------------------------------------------------E---------------------------------------------------------------------

e-13p10--10-13p10--10-13p10--10-13--x--15p12--12-15p12--12-15p12--12-B------11--------11--------11------x--------13--------13--------13---G--------------------------------------------------------------------D--------------------------------------------------------------------A--------------------------------------------------------------------E---------------------------------------------------------------------

e-15p12---15p12--12-15p12--12-15p12--12-15---10-13p10--10-13p10--10-B------13------13--------13--------13------10--------10--------10---G-------------------------------------------------------------------D-------------------------------------------------------------------A-------------------------------------------------------------------E--------------------------------------------------------------------

e-13p10--10-13p10--10-13p10--10-13p10--10-13p10--10-13--x-15p12--12----B------10--------10--------11--------11--------11------x-------13------G----------------------------------------------------------------------D----------------------------------------------------------------------A----------------------------------------------------------------------E-----------------------------------------------------------------------

e-15p12--12-15p12--12-15p12--12-15p12--12-15p12--12-15p12--12-15p12---15b17B------13--------13--------13--------13--------13--------13--------12------G--------------------------------------------------------------------------D--------------------------------------------------------------------------A--------------------------------------------------------------------------E---------------------------------------------------------------------------

e--15b17r15-13---13--15bh17r15b17r15-12h15p12---------------------------B-------------15---13------------------------13h15p13-10h13p10----------G-------------------------------------------------------------9h12p9-----

D-------------------------------------------------------------------15s7A-----------------------------------------------------------------------E------------------------------------------------------------------------

e------------------------------------------------------------------B---6-5-3---6--6p5-x-5-------10-8-8-8--6-5-3--6--6p5-x-5-----------G---5-5-3---5-5----x-5--5s10-10-----9--5-5-3--5-5----x-5----------5D---7-5-3---7--7p5-x-5-----------------7-5-3--7--7p5-x-5-------5h7-A---------------------------------------------------------x-5s7----E------------------------------------------------------------------This is an amazing solo so have fun with it.


Standard tuning

|---------------------------------------------------|
|---------------------------------------------------|
|--12bu14--14bd12-10-12-10------12bu14bd12----------|
|--------------------------12-----------------------|
|---------------------------------------------------|
|---------------------------------------------------|

|---------------------------------------------------|
|---------------------------------------------------|
|---9h12p9--7h9p7--5h7p5----------------------------|
|-------------------------5h7p5---------------------|

|--------------------------------5h7p5-3------------|
|---------------------------------------------------|

|-----------------------|---------------------------|
|--10-10-10p8-6h8p6-----|------10p8-----10p8--------|
|-------------------7---|-----------9-------9-------|
|-----------------------|---------------------------|
|-----------------------|---------------------------|
|-----------------------|---------------------------|
This riffs played 3 times

|-----------10--------------------------------------|
|--------10----13p10----10--------------------10----|
|-12bu14-------------12----12p10-----------10----12-|
|--------------------------------12--10h12----------|
|---------------------------------------------------|
|---------------------------------------------------|

mu

mu

|--------------------------------12---------10------|
|--------10--------11-----11bu13-----13bd11---------|
|------9---------9----------------------------------|

|---10--------10------------------------------------|
|---------------------------------------------------|
|---------------------------------------------------|

|---13p10--------13p10-----------15p12-----------|
|---------10-----------11--------------12--------|
|------------x4-----------x4--------------x8-----|
|------------------------------------------------|
|------------------------------------------------|
|------------------------------------------------|

|---15bu17-17bd15---13--15p13---15bu17bd15-----------------------|
|----------------------------15------------14h17p14--------------|
|---------------------------------------------------13h16p13-----|
|------------------------------------------------------------16--|
|----------------------------------------------------------------|

+++++++++

Solo 1 +*****************************************************************
+++++++++

3:29

3:33

3:40

e|--------------------------------------9-12-10--------------------------------------------|

h|10--10-10-10------------------------10-------10------11-13-11h13r11-10h11r10-11-9--9-10
g|------------10h12r10-9h10r9--------9-----------10----------------------------------------|
D|---------------------------------11--------------12--------------------------------------|
A|-------------------------------12--------------------------------------------------------|
E|-----------------------------12----------------------------------------------------------|

3:41

3:50

e|-----13----------13-12----------------------------------------13-10-----10---------------|

h|--13---13-------------13--------13-13-13---15-15-13--15-15--10-----10-13--13-10---------g|14-------14-------------12-14-12-------------------15--------------------------12-10-----|
D|-----------15-15-------------------------------------------------------------------------|
A|-----------------------------------------------------------------------------------------|
E|-----------------------------------------------------------------------------------------|

3:53
e|-----------------------------------------------------------------------------------------|
h|-----3h6r3---5-6-8-6-5-6-8-6------3h6r3---------5--8-5-----5-----------------------------|
g|---3---------5------------------3-----------5-7--------7-5---7---------------------------|
D|-3-----------5----------------3-----------5----------------------------------------------|

Sign in | Recent Site Activity | Terms | Report Abuse | Print page | Powered by Google Sites