Anda di halaman 1dari 24

RIOT

For A Pessimist, Im Pretty Optimistic


Capo 1
Intro:

Guitar 1: C-G-Em-D-C-G-D (x2)

Guitar 2:
e|----------------------------------|
B|----------------------------------|
G|-16-16\15--11-11\10--16-16\15--18-|
D|--x--x\-x---x--x\-x---x--x\-x---x-| (x2)
A|-14-14\13---9--9\-8--14-14\13--16-|
E|----------------------------------|


Verse 1:
G C
Just talk yourself up And tear yourself down
G C
You've hit your one wall Now find a way around
F# G#m Ebm--C#
Well what's the problem? You've got a lot of nerve


Refrain:
Em Bm
So what'd you think I would say?
C D
No you can't run away, no you can't run away
Em D/F#
So what did you think I would say?
G Am
No you can't run away, no you can't run away
You wouldn't


Chorus:
C D Em
I never wanted to say this
C G D
You never wanted to stay
C D Em
I put my faith in you, so much faith
C D G D
And then you just threw it away


(Repeat Intro once only)
You threw it away


Verse 2:
G C
I'm not so naive My sorry eyes can see
G C
The way you fly shy Of almost everything
F# G#m Ebm--C#--
Well, if you give up You'll get what you deserve


(Repeat Refrain and Chorus)


Bridge: Bass lines
You were finished long before
We had even seen the start
Why don't you stand up, be a man about it?
G(hold)
Fight with your bare hands about it now


Bass lines:
G|--------4-3-1-----------4-3-1---|
D|-1--3-4-------4-0-1-3-4-------4-|
A|--------------------------------| (x2)
E|--------------------------------|

Guitar 2: at "Why don't you stop...", your
fingers must be VERY FAST in this part
Josh Farro did a SEMI SWEEPING here,
it's difficult at first but once you
master this part, it's easy as 1,2,3.

e|-11-14-11----14-11----14-11----14-11----|
B|----------14-------14-------14-------14-|
G|----------------------------------------|
D|----------------------------------------|
A|----------------------------------------|
E|----------------------------------------|

e|-14-11----14-11----14-11----14-11-------|
B|-------14-------14-------14-------14-11-|
G|----------------------------------------|
D|----------------------------------------|
A|----------------------------------------|
E|----------------------------------------|

e|-11-14-11----14-11----14-11----14-11----|
B|----------14-------14-------14-------14-|
G|----------------------------------------|
D|----------------------------------------|
A|----------------------------------------|
E|----------------------------------------|

e|-14-11----14-11----14-11----14-11--------2-|
B|-------14-------14-------14-------14-11--2-|
G|-----------------------------------------3-|
D|-----------------------------------------4-|
A|-----------------------------------------4-|
E|-----------------------------------------2-|


Outro:
C G Em D
I never wanted to say this
C G D
You never wanted to stay
C D Em
I put my faith in you, so much faith
C D G
And then you just threw it away
C D Em
I never wanted to say this
C G D
You never wanted to stay
C D Em
I put my faith in you, so much faith
C D G
And then you just threw it away


Ebm(hold)--C#(hold)

Thats What You Get
Capo 1
Intro: G G A Bm A (2x)

Verse 1
G A Bm
No sir, well I don't wanna be the blame, not anymore
G A Bm
It's your turn, so take a seat we're settling the final score
G A Bm A
And why do we like to hurt, so much?
G Bm
I can't decide, you have made it harder
Bm G A
Just to go on and why, all the possibilities
Bm D(hold)
Well, I was wrong


Chorus
G D Bm A
That's what you get when you let your hear win, whoa
G D A
That's what you get when you let your heart win, whoa
Bm A Bm A
I drowned out all my sense with the sound of its beating
G D Bm A
And that's what you get when you let your heart win, whoa


G G A Bm A (repeat)


Verse 2
G A Bm
I wonder, how am I supposed to feel when you're not here?
G A Bm
'Cause I burned every bridge I ever built whey you were here
G A Bm
I still try holding onto silly things I never learn
G A Bm D(hold)
Oh why, all the possibliites I'm sure you've heard


Chorus
G D Bm A
That's what you get when you let your hear win, whoa
G D A
That's what you get when you let your heart win, whoa
Bm A Bm A
I drowned out all my sense with the sound of its beating
G D Bm A
And that's what you get when you let your heart win, whoa


Bridge
G A Bm
Pain, make your way to me, to me
G A Bm
And I'll always be just so inviting
G A Bm
If I ever start to think straight
G
This heart will start a riot in me
A Bm
Let's start, start, hey!
G A Bm A
Why do we like to hurt so much?
G A Bm A
Oh, why do we like to hurt so much?
N.C. A
That's what you get when you let your heart win, whoa


Outro
G D Bm A
That's what you get when you let your hear win, whoa
G D A
That's what you get when you let your heart win, whoa
Bm A Bm A
Now I can't turst myself wih anything but this
G D A
And that's what you get when you let your heart win, whoa

G G D(hold)






Hallelujah
Capo 1
INTRO: C

C Am G
Somehow everything's gonna fall right into place,

C Am G
If we only had a way to make it all fall faster everyday.

C Am G
If only time flew like a dove,

C Am G
Well, God make it fly faster than I'm falling in love.

C

C Am G
This time we're not giving up,

C Am G
Let's make it last forever,

C Am G
Screaming "Hallelujah".
C Am G
We'll make it last forever.

C Am G
Holding onto patience, wearing thin,

C Am G
I can't force these eyes to see the end.

C Am G
If only time flew like a dove,

C Am G
We could watch it fly, and just keep looking up.

C

C Am G
This time we're not giving up,

C Am G
Let's make it last forever,

C Am G
Screaming "Hallelujah".

C Am G
We'll make it last forever.

Em F G# C# x2

Em F G# C# Em F G# C#
And we've got time on our hands.

C Am
Got nothing but time on our hands.

Am G
Got nothing but, got nothing but.

C Am G
Got nothing but time on our h a n d s.


Look at some other tabs for the solo. Also, I can't figure the chords out. Hehe.


C Am G
This time we're not giving up,

C Am G
Oh, let's make it last forever,

C Am G
Screaming "Hallelujah".

C Am G
" H A l l E l u j A H " .

End on C .

Misery Business
Capo 1
Intro

[Em D Em C] x2


Em D
I'm in the business of misery, let's take it from the top
Em C
She's got a body like an hourglass that's ticking like a clock
Em D
It's a matter of time before we all run out...
Em C
When I thought he was mine, she caught him by the mouth
Em
I waited eight long months
D
She finally set him free
Em C
I told him I couldn't lie, he was the only one for me
Em D
Two weeks and we had caught on fire
Em C
She's got it out for me, but I wear the biggest smile


Em.....D D D D D


C2 G D
Whoa... Well i never meant to brag
Em D
But I got him where I want him now
C2 G D
Whoa... it was never my intention to brag
Em D
To steal it all away from you now
C2 D
But God does it feel so good

'Cause I got him where I want him now
C2 D
And if you could then you know you would

'Cause God it just feels so...
Em D Em C C C C
It just feels so good

Em D
Second chances: they don't ever matter, people never change
Em C
Once a whore, you're nothing more, I'm sorry that'll never change
Em D
And about forgiveness, we're both supposed to have exchanged
Em C
I'm sorry honey, but I'm passing up, now look this way
Em D
Well there's a million other girls who do it just like you
Em C
Looking as innocent as possible to get to who
Em D
They want and what they like, it's easy if you do it right
Em C
Well I refuse, I refuse, I refuse!


Em....D D D D D


C2 G D
Whoa... Well i never meant to brag
Em D
But I got him where I want him now
C2 G D
Whoa... it was never my intention to brag
Em D
To steal it all away from you now
C2 D
But God does it feel so good

'Cause I got him where I want him right now
C2 D
And if you could then you know you would

'Cause God it just feels so...


C2 G D Em D C2
D Em D
It just feels so goooooooooooood


C2 G
I watched his wildest dreams come true
D Em D
Not one of them involving you
C2 G D
Just watch my wildest dreams come true
C
Not one of them involving ...

[C2 G D Em D] x4

C2 G D
Whoa, What ever makes you brag
Em D
But I got him where I want him now ...
C2 G D
Whoa... it was never my intention to brag
Em D
To steal it all away from you now
C2 D
But God does it feel so good

'Cause I got him where I want him now
C2 D
And if you could then you know you would

'Cause God it just feels so...

Em D Em C Em D
C C C C
It just feels so good


When It Rains
Capo 3
Intro: Am x 2

Guitar 1 :

E |------11---11---13---1315---|------11----11-----------------|
B |--9h11--11---11----11----11-|-9h11---11----11-9-11-9-8------|
G |----------------------------|-------------------------------|
D |----------------------------|-------------------------------|2x
A |----------------------------|-------------------------------|
E |----------------------------|-------------------------------|

Guitar 2 : F Am C F G Am x 2 C


C Am
And when it rains,
F C Am
On this side of town it touches, everything.

F C
Just say it again and mean it.
F
We don't miss a thing, You made yourself a bed
C
At the bottom of the blackest hole
F
And convinced yourself that
C G
It's not the reason you don't see the sun anymore



F Am C
And oh, oh, how could you do it?
F G Am
Oh I, I never saw it coming.
F Am C
Oh, oh, I need the ending.
F G
So why can't you stay
Am C
Just long enough to explain?


Am
And when it rains,
F C
Will you always find an escape?
Am F C
Just running away from all of the ones who love you,
F
From everything. you made yourself a bed
C
At the bottom of the blackest hole
F
And you'll sleep 'til May
C G
And you'll say that you don't want to see the sun anymore



F Am C
And oh, oh, how could you do it?
F G Am
Oh I, I never saw it coming.
F Am C
Oh, oh, I need the ending.
F G
So why can't you stay
Am C
Just long enough to explain?


Am G F
Take your time.
Am G F
Take my time.


Am G
Take these chances to turn it around.

F
Take these chances, we'll make it somehow
Am G
And take these chances to turn it around.
F
Just turn it around.


F Am C
And oh, oh, how could you do it?
F G Am
Oh I, I never saw it coming.
F Am C
And oh, oh, how could you do it?
F G Am
Oh I, I never saw it coming.
F Am C
And oh, oh, how could you do it?
F G Am
Oh I, I never saw it coming.
F Am C
Oh, oh, I need the ending.
F G
So why can't you stay
Am C
Just long enough to explain?


Am G F
You can take your time, take my time.


Let The Flames Begin
Capo 3
Chords used:
Am - 244222
C - x02220
F - xx0232
Dm - x24432
G - 022100


Intro:

Part 1:
e|---2---2---2---2---2---2---2---2-|---2---2---2---2-|
B|-2---2---2---2-------------------|-0---0---0---0---|
G|-----------------2---2---2---2---|-----------------|
D|---------------------------------|-----------------| (x2)
A|---------------------------------|-----------------|
E|---------------------------------|-----------------|
x2

Part 2: F#m--A--D--Bm

Guitar 2:
e|-----5--0------------5--0-----2-|
B|---2-------2--0----2-------2----|
G|-2---------------2--------------|
D|--------------------------------|
A|--------------------------------|
E|--------------------------------|


Verse 1:
Am C
What a shame we all became such fragile
F Dm
broken things A memory remains just a tiny spark
Am C F
I give it all my oxygen So let the flames begin
Dm
So let the flames begin Oh, glory
F-Dm-Am
Oh, glory


Chorus 1:
Am C
This is how we dance when
F
When they try to take us down
Dm
This is what will Oh, glory


Verse 2:
Am C
Somewhere weakness is our strength
F
And I'll die searching for it
Dm
I can't let myself regret such selfishness
Am C
My pain and all the trouble caused
F Dm
No matter how long I believe that there's hope
F-Dm-Am
Buried beneath it all and
F-Dm-G
Hiding beneath it all, and
Growing beneath it all, and...


Chorus 2:
Am C
This is how we dance when
F
When they try to take us down
Dm
This is how we'll sing it
Am C
This is how we'll stand when
F
When they burn our houses down
Dm
This is what will be Oh, glory


Bridge:
Am C F Dm
Reaching as I sink down into light
Am C F Dm
Reaching as I sink down into light


(Repeat Chorus 2)


Outro:
e|-9---------------------|---------|
B|---7-------------------|---------|
G|-----9---9-------------|---------|
D|-------------7-7-6-7---|-6--7--9-| x2
A|-------9---9---------9-|---------|
E|-----------------------|---------|
x3

Miracle
Capo 3
Chords used:
Em - x46654
C - x02220
D - x24442
E - 022100
G#m - 466444
F#m - 244222


Intro:

Guitar 1: C#m--A--C#m--B--A--E-F#m (x2) then A(hold)

Gutiar 2: x2
e|---------0-0--------2-2---------0-0-0-0-0-------4-4-4-------7--4--------
B|------------------------------------------4-4-4-------0-2-2-------4h5p4-
G|-1-1-2-2-----1-1-2-2----1-1-2-2-----------------------------------------
D|------------------------------------------------------------------------
A|------------------------------------------------------------------------
E|------------------------------------------------------------------------


Verse 1:
C D Bm C G
I've gone for too long living like I'm not alive
C D Bm C
So I'm going to start over tonight
G
Beginning with you and
C D Bm C
I, When this memory fades
G C
I'm gonna make sure it's replaced
D Bm C
With chances taken Hope embraced
G Am
I hope I told you


Chorus:
Em C Em
I'm not going
D C
cause I've been waiting for a miracle
G Am
And I'm not leaving
Em C Em
I won't let you
D C
Let you give up on a miracle
G Am C(hold)
Cause it might save you


Verse 2:
C D Bm C
We've learned to run from
G C
Anything uncomfortable
D Bm C
We've tied our pain below and
G C
no one ever has to know
D Bm C
That inside we're broken
G
I tried to patch things up again
C D Bm
To cut my tears and kill my fears
A E--F#m--A--B
But have I told you how I..


(Repeat Chorus)


Bridge:
Em G
It's not faith if, if you use your eyes
D
Oh why
Em
Get it right this time (this time)
G
Let's leave this all behind
D
Oh why
Em
We'll get it right this time
G
It's not faith if you're using your eyes
D
Oh why


Verse 3:
C D Bm C G C
I've gone for too long living like I'm not alive
D Bm C
So I'm going to start over tonight
G C
Beginning with you and
D Bm C G C
I don't want to run from anything uncomfortable
D Bm
I just want, no
C G -break-
I just need this pain to end right here


(Repeat Chorus)


Outro:
C Em
Yeah, it might save you
D C
Oh, it might save you
Em
It's not faith if, if you use your eyes
C(hold)
If you use your eyes If you use your eyes

CrushCrushCrush
Capo 3
Chords used:
Em - x46654
G - 022100
D - x24442
C - x02220
A#/D - x365xx
Bm - 466444
A/C# - x143xx


Intro: B/D#

Verse 1:
Em G
I got a lot to say to you
D Em
Yeah, I got a lot to say
Em G
I noticed your eyes are always glued to me
D
Keeping them here And it makes no sense at all


Refrain:
C D
They taped over your mouth
Em
Scribbled out the truth with their lies
You little spies
(Repeat)


Interlude: A--G#m-G#/C

Guitar 2:
e|-11-12-11--------12--11-
B|----------12------------
G|-------------11---------
D|------------------------
A|------------------------
E|------------------------


C#m(hold)
Crush Crush Crush
Crush, crush
(Two, three, four!)


Chorus 1:
Em G D
Nothing compares to a quiet evening alone
C Em D
Just the one two of us who's counting on
Em G D
That never happens I guess I'm dreaming again
A B(hold)
Let's be more than this


Interlude: C#m--B (x2) G#/C

Guitar 2:
e|-4-5-4-2-0-----------------|-4-5-4-2-0------------9-
B|-----------4-5-4-2-0--0--0-|-----------4-5-4-2-0----
G|---------------------------|------------------------
D|---------------------------|------------------------
A|---------------------------|------------------------
E|---------------------------|------------------------


Verse 2:
Em G
If you want to play it like a game
D Em
Well, come on, come on, let's play
Em G
Cause I'd rather waste my life pretending
D
Than have to forget you for one whole minute


(Repeat Refrain and Chorus 1)


Interlude: C#m-E-B--A (x2)


Bridge:
Em G D
Rock and roll, baby
C Em G D
Don't you know that we're all alone now?
C
I need something to sing about
Em G D
Rock and roll, baby
C Em G D
Don't you know baby we're all alone now?
C
I need something to sing about
Em G D
Rock and roll, baby
C Em G D
Don't you know baby we're all alone now?
C
I need something to sing about



Chorus 2:
Em G D
Nothing compares to a quiet evening alone
C Em D B/D#
Just the one two of us who's counting on
Em G D
That never happens I guess I'm dreaming again
C D
Let's be more than this


(Repeat Chorus 1)


Outro: C#m--G#/C--B--F#/Bb--A--B-G#/C-C#m(hold)

Guitar 2:
e|-12--11--12-11-9--11-12--11--12-9------5-4---------11-12-11-12-14-12-11-12-21-
B|-----------------------------------5-5---------5-4----------------------------
G|---------------------------------------------4--------------------------------
D|-------------------------------------------2----------------------------------
A|------------------------------------------------------------------------------
E|------------------------------------------------------------------------------

We Are Broken
Cadd9 Em7 G C Em D Bb F
e|---3----3---3---0---0---2---1---1---|
B|---3----3---3---1---0---3---3---1---|
G|---0----0---0---0---0---2---3---2---|
D|---2----2---0---2---3---0---3---3---|
A|---3----2---2---3---2---x---1---3---|
E|---x----x---3---x---0---x---1---1---|

Cadd9 Em7
I am outside
G Cadd9
And I've been waiting for the sun
Em7
With my wide eyes
G Cadd9
I've seen worlds that don't belong
Em7 G Cadd9
My mouth is dry with words I cannot verbalize
Em7 G
Tell me why we live like this

C Em D
Keep me safe inside
C
Your arms like towers
Em D
Tower over me, yeah


Em7 G
Cause we are broken
D
What must we do to restore
Em7 G
Our innocence
D C
And oh, the promise we adored
Em
Give us life again
C Em G
Cause we just wanna be whole


Cadd9 Em7
Lock the doors
G
Cause I like to capture this voice
Cadd9 Em7
It came to me tonight
G Cadd9
So everyone will have a choice
Em7
And under red lights
G Cadd9
I'll show myself it wasn't forged
Em7
We're at war
G
We live like this


C Em D
Keep me safe inside
C
Your arms like towers
Em D
Tower over me


Em7 G
Cause we are broken
D
What must we do to restore
Em7 G
Our innocence
D C
And oh, the promise we adored
Em
Give us life again
C Em G
Cause we just wanna be whole


Bb F C x2

Bb F C (F)
Tower over me
Bb F C D
Tower over me

D
And I'll take the truth at any cost


Em7 G
Cause we are broken
D
What must we do to restore
Em7 G
Our innocence
D C
And oh, the promise we adored
Em
Give us life again
C Em G
Cause we just wanna be whole

Fences
Capo 5
Chords used:
G - xx0232
D - x02220
Em - x24432
G - 320033
Em - 022000
F#m - 244222
F# - 244322
G/B - 2x023x
B/D# - x143xx
A/C# - 476xxx


Intro: Bass lines, Bm--F#m (x2)
G|-----------------------------------------------------------------|
D|-----0-2-----0-2---2-0-----2-4-0-----0-2-----0-2---2-0---0---0---|
A|-2-4-----2-4-----------4---------2-4-----2-4-----------4---4---4-|
E|-----------------2-------2-----------------------2---------------|


Verse 1: while doing the bass
Em
I'm sitting in a room
Bm
Made up of only big white walls and in the halls
Em
There's people looking through
Bm
The window though they know exactly what we're here for
Am
Don't look up Just let them think
D Bm(hold)
There's no place else You'd rather be
Em
You're always on display
Bm
For everyone to watch and learn from
Am G D
Don't you know by now You can't turn back
Am G/B C D G B
Because this road is all you'll ever have


Chorus:
Em C Am B
And it's obvious that you're dying, dy-ing
Em C Am B
Just living proof that the camera's ly-ing
C Am C
And open wide, 'cause this is your night
D B(hold)
So smile, 'cause you'll go out in style


(Repeat Intro)
You'll go out in style


Verse 2:
Em
If you let me I could
Bm
I'd show you how to build your fences
Em
Set restrictions, separate from the world
Bm
Because the ground that you hate to fight
Am
Just blame the limelight Don't look up
D
Just let them think There's no place else
Am G D
You'd rather be and now you can't turn back
Am G/B C D G B
Because this road is all you'll ever have


(Repeat Chorus except last line)
B(hold)
So smile,


Bridge:
Am C
Yeah, yeah you're asking for it
G
With every breath that you breathe in
D
Just breathe it in
Am C
Yeah, yeah well you're just a mess
G
You do all this, big talk, yeah..
D
So now let's see you walk it.
I said let's see you walk it.


Solo:

Guitar 1: Bm-F#/Bb-A-E/G#-G--F# (x2) then bass lines Bm--G-Em-F# (x2)

Guitar 2:
e|---------------------------------------------|
B|----------------------------------2~--0~--3~-|
G|-4~--2~--4~--2~--4-2-0----4~--2~-------------|
D|-----------------------4---------------------|
A|---------------------------------------------|
E|---------------------------------------------|

then this one while doing the bass lines
e|-7~---9~-10~-12~---14~--12-|
B|---------------------------|
G|---------------------------|
D|---------------------------|
A|---------------------------|
E|---------------------------|

Bass:
G|-----------0----------------|
D|-----0-2-4---4------0-------|
A|-2-4--------------2---------| (x2)
E|----------------3------0--2-|


Am C
Yeah, yeah well you're just a mess
G
You do all this, big talk, yeah..
D
So now let's see you walk it.
I said let's see you walk it.

Born For This
Capo 1
Intro:
Am-G-C-Dm (x2) then Am


Verse 1:
Am F Em
Oh no I just keep on falling (Back to the same old)
Am Dm C E
Where's hope when misery comes crawling? (Oh, oh way hey)
Am F Em
With your faith you'll trigger a landslide (Victory)
Am Dm C F
Kill off this common sense of mind


Refrain:
Dm Am
It takes acquired minds to taste, to taste, to taste this wine
F Dm
You can't down it with your eyes So we don't need the headlines
G
We don't need the headlines We just want
Am
(We just want the airwaves back) x2


Chorus:
F C Em F
Everybody sing Like it's the last song you will ever sing
Am G
Tell me tell me do you feel the pressure now?
F C Em F
Everybody live Like it's the last day you will ever see
Am G F(hold)
Tell me tell me do you feel the pressure now?


Verse 2:
Am F Em
Right now you're the only reason (I'm not letting go oh)
Am Dm C E
And time out if everyones worth pleasing
Am F Em
(Ah woah oh) You'll trigger a landslide (Victory)
Am Dm C E
To kill off their finite state of mind


(Repeat Refrain And Chorus)


F C Em F
Everybody sing Like it's the last song you will ever sing
Am G
Tell me tell me do you feel the pressure


(Repeat Intro)


Bridge: x2
F
Alright, so you think you're ready?
G
Okay then you'll say this with me go
Am Dm
We were born for this(We were born for this)
F
Alright, so you think you're ready?
G
Okay then you'll say this with me go
Am Dm
We were born for this(We were born for this)

F G
We were born for this (We were born for this)
F Em
We were born for... We were born for...


(Repeat Chorus)


Outro:

F C Em F
Everybody sing Like it's the last song you will ever sing
Am G
Tell me tell me do you feel the pressure
F
Tell me tell me do you feel the pressure
Am Dm F G
Am(hold)
We were born for this (We were born for this) We were born for this

Emergency
Capo 3
Intro: F--

Guitar 2:
e|-------9-----9-----9-------------7-----7-----7--------|
B|---7-----7-----7-----7---7---7-----7-----7-----7---7--|
G|-----7-----7-----7-----7-------7-----7-----7-----7----|
D|-0-------------------------0--------------------------|
A|------------------------------------------------------|
E|------------------------------------------------------|

G-Am--G G-Am--G

Verse 1:
F G-Am
I think we have an emergency, I think we have an emergency
G G-Am G
if you thought I'd leave then you we're wrong cause I won't stop holding on
F G-Am
so are you listening, so are you watching me?
G G-Am G
if you thought I'd leave then you we're wrong cause I won't stop holding on.
F
this is an emergency, so are you listening.
G-Am G G-Am G
and I can't pretend that I don't see this.


Refrain:
G Am
but it's really not your fault,
F
when no one cares to talk about it,
Dm-C/E
talk about it.


Chorus:
Dm F Am
cause I've seen love die,
C Dm
way too many times
F Am G
when it deserved to be alive.
Dm F Am
and I've seen you cry,
C Dm
way too many times
F Am G
when you deserved to be alive,
F
alive.


Verse 2:
G-Am G G-Am G
so you give up every chance you get, just to feel new again.
F G-Am
I think we have an emergency. I think we have an emergency.
G G-Am G
and you do your best to show me love, but you don't know what love is.
F
so are you listening, so are you watching me.
G-Am G G-Am G
well I can't pretend that I don't see this.


(Repeat Refrain and Chorus)


Bridge:
G Am
Scars they will not
F
fade away.

Jason guitar solo while doing this chords
E--F#m--D (x2)

Guitar Solo:
e|-----------------------------------------------|
B|-----------------------------------------------|
G|----------13-14-13-------------13-14-13--------|
D|-------14----------14-------14----------14-----|
A|-12-14----------------12-14----------------14--|
E|-----------------------------------------------|

e|----------------------------------------|
B|-12--14--------------12--14-------------|
G|--------14------------------14--13--13--|
D|------------14--h16---------------------|
A|----------------------------------------|
E|----------------------------------------|

e|-------------------------------12-------|
B|-------------------------12-14----------|
G|----------13-14-13----14-------------14-|
D|-------14----------14-------------------|
A|-12-14----------------------------------|
E|----------------------------------------|

e|17--16--------------17--16--------------|
B|-------17------------------17-----------|
G|----------18------------------18--------|
D|--------------h16-----------------h16---|
A|----------------------------------------|
E|----------------------------------------|

G Am
when no one cares
F
to talk about it
Dm Em
talk about it


(Repeat Chorus)