Anda di halaman 1dari 33

Faz chover

(intro 2x) Am F C G
C
G/B
Am
Assim como a cora anseia por guas
F
C/E
D
G
Como terra seca precisa da chuva
F
G
C/E
F
C
G
Meu corao tem sede de ti Rei meu e Deus meu

(2x)

Am F
C
G
Faz chover Senhor Jesus
Am F
G
Derrama chuva neste lugar
Am F
C
G
Vem com teu rio Senhor Jesus
Am
F
G
Inundar o meu corao (2x)
Am F
Faz chover...
(solo base)

(2x)
Am7 F5 C9 G4 Am7 F5 C9 G4 F5 G4 A5 D4 D

(solo)
E |-----------------------------------------5--------|
B |-12-14-14b(1/2)~----------------------------------|
G |----------------11-12~-11h12/14-12-11-9~---7------|
D |--------------------------------------------------|
A |--------------------------------------------------|
E |--------------------------------------------------|
E
B
G
D
A
E

|--10-9-7----------------------------|
|---------10-8-7-------10~-10/12-10~-|
|-7--7-7-7--7----9-9/11--------------|
|------------------------------------|
|------------------------------------|
|------------------------------------|

E
B
G
D
A
E

|-T----------T----------T----------T----------T-----------|
|-12-10p8h10-14-10p8h10-15-10p8h10-14-10p8h10-14-12p10h12-|
|---------------------------------------------------------|
|---------------------------------------------------------|
|---------------------------------------------------------|
|---------------------------------------------------------|

E
B
G
D
A
E

|-T-----------T-----------T-----------T------------------|
|-15-12p10h12-17-12p10h12-15-12p10h12-17~-17b-17r-17b~~~-|
|--------------------------------------------------------|
|--------------------------------------------------------|
|--------------------------------------------------------|
|--------------------------------------------------------|

Bm7 G9
D9
A5
Faz chover
Senhor Jesus

Bm7 G9
A5
Derrama chuva
neste lugar
Bm7 G9
D9
A5
Vem com teu rio Senhor Jesus
Bm7
G9
A5
Inundar o meu corao
Bm7 G9 D9 A5
Faz chover...
(2x)

Enche este lugar


INTRO: ::: E : B : C#m : A :::
E
B
C#m
Tu que ests assentado
sobre os querubins,
E
B
C#m
Tu que ests entronizado
em meio aos serafins,
E
B
C#m
Tu que ests aclamado por anjos, Vem neste lugar!

A
A
A

E
B
C#m
A
Tu que ests assentado
sobre um Trono de Glria,
E
B
C#m
Tu que ests entronizado
sobre os louvores do Teu Povo,
E
B
C#m
Tu que ests aclamado por Tua Igreja, vem neste lugar!
E
B
Vem neste luga - a - ar!
C#m
A
Enche este luga - a - ar!
E
B
Enche este luga - a - ar!
C#m
A
Enche minha vida!
OBS: (No final repete o coro 2x)

Perto Quero Estar


Bb
Eb
F/A
Perto quero estar
Bb
F/A
Junto a teus ps
Eb
Gm
Pois prazer maior no h
F
Eb7+
Eb/G
Que me render e Te adorar
Bb
Eb/Bb F/A
Tudo que h em mim
Bb
F/A
Quero te ofertar
Eb/G
Gm
Mais ainda pouco eu sei

A
A

F
Eb7+
Se comparado ao que ganhei
Bb
Eb
No sou apenas servo
F/A
Eb Eb/F F/A
seu amigo me tornei

Bb

F/Bb Eb
Te louvarei
Bb
F/Bb
Eb
F
No importam as circunstncias
F/Bb Eb
Gm
Adorarei
F
Bb Eb/G F/A
Somente a ti Jesus.

Bb

Ha um futuro
e|-----------------------------------------B|-----------------------------------------G|--9--------------------------------------D|--9--------------------------------------A|--7----7/9-7/11-7/12-----7/9-7/11-7/12---E|----7-9---------------7-9----------------E
B/E
A/E
B/E
O que Deus pensa sobre mim so pensamentos de paz
E
B/E
A/E
B/E
Eu sei que Tua vontade o que eu mais quero
C#m7 B9
A9
C#m7 B9
A9
H
um futuro, eu sei que h
um futuro
E
B/E A/E
B/E
Tua vontade perfeita e agradvel
E
B/E
A/E
B/E
Eu sei que os teus planos jamais sero frustrados
C#m7 B9
A9
C#m7 B9
A
H
um futuro, eu sei que h
um futuro
E

B9
C#m7
A9
E
Se eu abrir meu corao e buscar ao meu Senhor
B9
F#m7
A9
E
Fico tranqilo, pois eu sei que o cu se abre a meu favor
B9
C#m7
A9
E
Se eu abrir meu corao e buscar ao meu Senhor
B9
F#m7
A9
E
Fico tranqilo, pois eu sei que o cu se abre a meu favor

Diante de ti
(intro) D

D4

D4

D
D4
D
D
D4
D
Vem Senhor encher este lugar, Vem Senhor encher este lugar
A
G9 D
A
G9
D D4

Com Tua Glria, com Tua Glria, com Tua Glria, com Tua Glria
D
D4
D
D
D4
D
Fala-me eu quero Te ouvir, toca-me eu quero Te sentir
A
G9 D
A
G9
D
Vem e abraa-me, vem e abraa-me, vem e abraa-me, vem e abraa-me
A
Bm
G9
D
Todo dia Dia de adorar ao Senhor
A
Bm
G9
D
Eu conto os segundos s pra Te encontrar
Em
D/F#
A
Quando estou em Tua Presena
D A
Bm G9
D vontade de pular, d vontade de danar
D A
Bm G9
D vontade de gritar, d vontade de correr
D
A
Bm
Diante de Ti d vontade de pular, d vontade de danar
G9
D
D vontade de gritar, d vontade de correr
A
Bm G9
Diante de Ti d vontade de pular, d vontade de danar
(solo) D

D4

D4

D4

D4

D
D4
D
D
D4
D
Fala-me eu quero Te ouvir, toca-me eu quero Te sentir
A
G9 D
A
G9
D
Vem e abraa-me, vem e abraa-me, vem e abraa-me, vem e abraa-me
A
Bm
G9
D
Todo dia Dia de adorar ao Senhor
A
Bm
G9
D
Eu conto os segundos s pra Te encontrar
Em
D/F#
A
Quando estou em Tua Presena
D A
Bm G9
D vontade de pular, d vontade de danar
D A
Bm G9
D vontade de gritar, d vontade de correr
D
A
Bm
Diante de Ti d vontade de pular, d vontade de danar
G9
D
D vontade de gritar, d vontade de correr
A
Bm G9
Diante de Ti d vontade de pular, d vontade de danar
G9
D
Diante de Ti, na Tua Presena Senhor
A
Bm
D vontade de correr, de saltar de alegria
G9
D
De Te conhecer Senhor, de erguer minhas mos
Bm
G9
De Te adorar, de Te adorar Senhor
D
D vontade

A
D vontade de pular, d vontade de danar
G9
D vontade de gritar, d vontade de correr
A
D vontade de pular, d vontade de danar
G9
Diante de Ti
( D

D4 D

D4

D4

Bm
D
Bm

D )

(solo)
E |------------------------------/12-----13--10---15-------10-----5----B |--------/13------10--8--12--------------------------------------------G
|---------------------------------------------------------------------------D
|---------------------------------------------------------------------------A
|----------------------------------------------------------------------------E
|-----------------------------------------------------------------------------

Se no for pra ti adorar


D
G
Se no for pra te adorar para que nasci
Bm
A/F#
Se no for pra Te servir por que estou aqui
G
A
D
A
Sim eu quero Te adorar, Te adorar, Senhor estou aqui. (2X)
Bm A
G A
D
Senhor estou aqui, Senhor estou aqui, Senhor estou aqui...
(intro 2x) D

D
G
Bm
A
Diante do trono Senhor, quero levar minha oferta de amor.
Bm
F#m
G
A
Diante do trono Senhor, quero levar meu sacrifcio de louvor.
D
G
Bm
A
As minhas mos levantar, Tua beleza ento contemplar.
Bm
F#m
G
A
Com meus lbios declarar toda a minha adorao.
(solo ou dedilhado)
( D D E F# G A )
( D D E E B A G A )

( D D E E G )
(refro)
( D

G#

A )

(6x)

(volta no incio)
(Rap)
D
G
Se no for pra te adorar, para qu nasci?
Bm
Se no for pra te servir, porqu estou aqui?
A
G
Sim eu quero te adorar, preciso te adorar, anseio te adorar...
D
G
, , ,
Bm
A
, ,

Grande o Senhor
(intro) A
(parte lenta)
(refro)
A
E
D
Grande o Senhor (2x)
A
E
D
Suas grandes obras no tem fim
A
E
D
Seus olhos esto sobre mim
(parte 1)
A
E
Grande o Seu amor
D
E
derramado em mim pelo esprito
A
E
conseilheiro e amigo fiel
D
E
fidedigno em tudo que prometeu
Bm
E
agradvel a sua vontade
Bm
E
eterna a sua bondade
(refro)
(intro 2x) A E D

A E D

F#m E D

F#m E D

(refro)
A
E
D
Grande o Senhor 2X
F#m
E
D
Suas grandes obras no tem fim
F#m
E
D
Seus olhos esto sobre mim
(parte 1)
A
E
Grande o Seu amor
D
E
derramado em mim pelo esprito
A
E
conseilheiro e amigo fiel
D
E
fidedigno em tudo que prometeu
Bm
E
agradvel
Bm
E
eterna a sua bondade
(refro)
A
eu nao me canso(3x)
de danar na presena de Deus
(intervalo)

A E D

A E D

F#m E D

F#m E D

(parte 2)
A
eu nao me canso ( 3x )
de pular na presena de Deus
(intervalo) A E D

A E D

F#m E D

F#m E D

(refro 2x)
A
eu no me canso ( 3x )
de pular na presena de Deus
(intervalo) A E D

A E D

F#m E D

F#m E D

(solo base) A E D

A E D

F#m E D

F#m E D

eu nao me canso (3x)


de dar brados de alegria

(intervalo) A E D
(solo base)

A E D

A E D

F#m E D

A E D

F#m E D

F#m E D

F#m E D

(refro)

Te Busco
(intro) G

C9

Em

D9

C9

G
C
Eu te busco, te procuro h Deus
Em
D
C
No silncio tu ests
G
C
Eu te busco, toda hora espero em ti, revela-te a mim
Em
D
C
Conhecer-te eu quero mais
(refro) (power achord)
G
D
Senhor te quero
Em
C
G
Quero ouvir tua voz
D
C
Senhor, te quero mais
(solo) C

D
Quero tocar-te
Em
C
Tua face eu quero ver
G
D
C
Senhor, te quero mais
(sem power achord)
G
C
Prosseguindo, para o alvo eu vou
Em
D
C
A coroa conquistar
G
C
Em
Vou lutando, nada pode me impedir, eu vou te seguir
D
C
Conhecer-te eu quero mais
(refro)
(repete tudo)

Vem est a hora


(intro) D
D
Dsus D
Vem, esta a hora da adoooorao

A
A9
Em
G
Vem, dar a Ele teu corao_
D
Dsus D
Vem, assim como ests para aaaadorar
A
A9
Em
G
Vem, assim como ests diante do Pai_
D
Vem
G
D
Toda lngua confessar o Senhor
G
D
Todo joelho se dobrar
G
Bm
Mas aquele que a Ti escolher
G
A
O tesouro maior ter
(solo) E Esus E

B F#m

A (2x) E

E |--------------------s---------------------------------s----------------------|
B |-9~~---7-9-10-9--7--/10--10-9~~~~-----7~~---5-7-9-7-5--/10--9-5--------------|
G
|-----------------------------------------------------------------------------|(2x)
D
|-----------------------------------------------------------------------------|
A
|-----------------------------------------------------------------------------|
E
|-----------------------------------------------------------------------------|
s ~~~~~~~~~~~~~~~~
E
|-----------------------------------------------------------------------------|
B |-9~~7-9-10-9--7--/10--10-9~~~~-----7~~---5-7-9-7-5--/10--12--14--16-17-------|
G
|-----------------------------------------------------------------------------|
D
|-----------------------------------------------------------------------------|
A
|-----------------------------------------------------------------------------|
E
|-----------------------------------------------------------------------------|
A
E
Toda lngua confessar o Senhor
A
E

Todo joelho se dobrar


A
C#m
Mas aquele que a Ti escolher
A
B
O tesouro maior ter
E
Vem,
B
Vem,
E
Vem,
B
Vem,

Esus E
esta a hora da adoooorao
B9
F#m
A
dar a Ele teu corao_
Esus E
assim como ests para aaaadorar
B9
F#m
A
assim como ests diante do Pai_

E
Vem

Na corte do Egito
(intro 2x) D

Bm

Bm

Em7
ou na casa de Csar
F#m
A
Bm
Na Babilnia eu sei que no meu lugar
Bm
Em7
Rejeito seus manjares, reprovo seus altares
F#m
A
Bm
E no me iludo com a festa de Belsazar
Em
F#m7
Porque eu no cedo, nem retrocedo
G
F#m7
Estou decidido e no volto a traz
Em
F#m7
Estou firmado, estou seguro
G
A
Eu sou um Santo lutando contra o pecado
Na corte do Egito,

(refro)
D
A/C#
Bm7
G
Saaaaanto, eu quero ser saaaaaaanto
Bm7
A
E
Eu quero ser santo, porque Santo meu Senhor
D
A/C#
Bm7
Eu quero ser saaaaanto, eu quero ser Saaaaaanto
Bm7
Eu quero ser santo
A
E
Porque Santo meu Senhor

O melhor de Deus
introA:(distorao leve)

E|----2xxxx3xxx3xxx3xxx3xxx3xx2xxx-----------------B|--------------------------------3xxxx3xxxx3xx3xxxG|-------------------------------------------------D|-------------------------------------------------A|-------------------------------------------------E|-------------------------------------------------E|-------------------------------------------------B|-------------------------------------------------G|-------------------------------------------------D|---4xxxx5xxx5xx5xxx5xxxxx5xxx4-------------------A|------------------------------5xx5xxxx5xxx5xxx---depois isto...
intro B:(distorao pesada)
D
D

Em... D Bm...
Em... D Bm C....

E este riff acompanha o comeo...alegrai-vos..


G
D
Em
C
G|-------------------------------------------------7
D|-----4--5--4-----4--5-4--------4--5--4-----4--5-4A|-------------5-5-----------5-5---------5--5------E|--3-3-------------------00-----------------------G
D
Em
Alegrai-vos filhos de siao
C
G
regozijai-vos no senhor
G
D
Em
C
por que ele vos dara em justa medida
G
D
Em
C
a chu...va,a chu..va
G
D
Em
C
As eiras se encherao de trigo oh oh!
G
D
Em
C
G
e os lagares,trasbordarao de oleo e vinho!
solo:
G|---------/7~~------------------------------------D|---------------5--4--5/------------/14~~---10-12~~
A|-------------------------------------------------E|----3~~------------------------------------------G
D
Em
C
Restituirei os anos que foram comsumidos
G
D
Em
C
e lhes mostrarei,a minha salvaao
G
D
Em
C
e sabereis,que o melhor de Deus ainda esta por vir!!
Refrao:

G
O melhor
Em
o melhor
G
o melhor
Em
o melhor

D
de Deus ainda esta por vir
C
de Deus ainda esta por vir
C
de Deus ainda esta por vir
C
de Deus!

(faz-se a intro(B)p/recomear ou para voltar ao refrao)

Toda sorte de beno


(intro 4x)

E/A

D/A

A
E/A
D
A
Pr onde eu for a tua beno me seguir
E/A
D
A
Onde eu colocar as minhas mos prosperar
E/A
A
A minha entrada e a minha sada bendita ser
E/A
D
Pois sobre mim a uma promessa
Bm F#m E
Bm
F#m E
Prosperarei , transbordarei
A
E/A
D
A
Os meus celeiros fartamente se enchero
E/A
D
A
A minha casa ter sempre tua proviso
E/A
D
A
Onde eu puser as plantas dos meus ps Possuirei
E/A
D
Pois sobre mim h uma promessa
Bm F#m E
Bm
F#m E
Prosperarei , transbordarei
A
E
F#m
D
Para direita , para esquerda
A
E
D9/F#
A minha frente , e para trs
A E F#m
D
A
Por todo lado, ,
sou abenoado
D
A
E F#m
Em tudo que eu fao
D
A
E F#m D
Sou abenoado
A E
F#m
D
Toda sorte de bnos
A
E
F#m
O Senhor preparou para mim
D
A
E
F#m
D
E em toda as coisas
A
E
D
Eu sou mais do que vencedor

E F#m

Ainda que a figueira


(intro)

F#m

F#m
E
Tu s a minha poro
Bm
D
Tu s a minha herana
F#m
E
Bm
D
Tu s o meu socorro nos dias de tribulao
A
E
Mesmo que os meus pais me deixem
Bm
D
Mesmo que amigos me traiam
A
E
Bm
D
Eu sei que em seus braos eu encontro salvao
(refro 2x)
A
E
Ainda que a figueira no florea
Bm
D
Ainda que a videira no de o seu fruto
A
E
Mesmo que no haja alimento nos campos
G
D
Eu me alegrarei em Ti
(intro) F#m
(solo base) B

A
A

E
Em

E|----------------------------------|
B|----------------------------------|
G|-----2-2-----2-----2--2/4-1-2-2-2-| (2x)
D|-2/4-----2/4----2/4---------------|
A|----------------------------------|
E|----------------------------------|
B A D
E|--------------------------|
B|---10-12b-12-10-9---------|
G|-9----------------9-11----| (2x)
D|--------------------------|
A|--------------------------|
E|--------------------------|
E|------9--10b-9-------------|
B|---10------------10-9------|
G|-9---------------------11--|
D|---------------------------|
A|---------------------------|
E|---------------------------|

Grandes coisas

(intro)

Bm A G

Bm
Tu s o Deus dessa terra
A
Tu s Rei desse povo
G
s o Senhor da nao
Em
Tu s
Bm
Tu s a luz desse mundo
A
Esperana para os perdidos
G
Tu s a paz pros cansados
Em
Tu s
D
A
G
Ningum como nosso Deus
Bm
A
G
A
Ningum como nosso Deus
G
Grandes
A
Grandes
G
Grandes
A
Grandes
G
Grandes
A
Grandes
G
Grandes
A
Grandes

coisas esto por vir


D A/C#
coisas vo acontecer nesse lugar

coisas esto por vir


D A/C#
coisas vo acontecer nesse lugar
coisas esto por vir

D A/C#
coisas vo acontecer nesse lugar
coisas esto por vir

D G
coisas vo acontecer aqui

(base solo)

Bm A G Bm A G

E|---------------------------------------------|
A|---------------------------------------------|
D|---------------------------------------------|
G|-----------------------14~~---------------9--|
B|-----14~~~--12~~------------10-h-9--10h9-----|
E|-----------------12~-------------------------|
Bm
A
G
Ningum como nosso Deus
Bm
A
G
Ningum como nosso Deus
Bm
A
G
Ningum como nosso Deus

(2x)

Bm
A
G
Ningum como nosso Deus

Eu escolho
G
Eu escolho Te louvar
Em
Com tudo o que sou
D/F#
C
Do meu orgulho eu abro mo
G
Nada me impedir
G
Tudo o que h em mim
Em
Entrego em Tuas mos
D/F#
Pois nasci pra Te adorar
C
G
Com a minha vida Te louvar
C
Eu escolho o som do Cu
Em
E eu canto "Aleluia!"
D/F#
Pois s bem maior
C
G
O mundo no vai me afastar de Ti
G
Sei que fui criado
Em
Para a Tua glria
D/F#
C
Com todo o meu corao
G
Te servirei (Te servirei)
C
Eu escolho o som do Cu
Em
E eu canto "Aleluia!"
D/F#
Pois s bem maior
C
G
O mundo no vai me afastar de Ti
C
Eu escolho Teu caminho
Em
E eu vou pagar o preo
D/F#
Pois s bem maior
C
G

(D

G)

O mundo no vai me afastar de Ti


D/F#
C
Em
D-me um corao consagrado a Ti
D/F#
C
Em
Totalmente fiel at o fim
D/F#
C
Em
Determinado a ver Teu Reino crescer
D/F#
Crescer
C
Eu escolho o som do Cu
Em
E eu canto "Aleluia!"
D/F#
Pois s bem maior
C
G
O mundo no vai me afastar de Ti
C
Eu escolho Teu caminho
Em
E eu vou pagar o preo
D/F#
Pois s bem maior
C
G
O mundo no vai me afastar de Ti
C

Em

D/F#
Pois s bem maior

C
G
O mundo no vai me afastar de Ti

Teu Fluir
Intro: G

D/F#

Em

Em/D

Am7

D7

G
D/F#
Em
Em/D
Teu fluir melhor
C
Am7
D7
Do que tudo que conheo
G
D/F#
Em
Em/D
Tua presena maior
C
Am7
D7
Do que tudo que anseio
C9
G/B
Tudo que posso render-me a ti
Am7
Am7/G
D7
E dizer que eu te amo, que te amo meu Jesus
G
D/F#
Em
Teus cabelos ungidos esto
C
Am7
D7
Com leo de alegria

Em/D

G
D/F#
Em
Em/D
Tua fragancia mais doce
C
Am7
D7
Que o perfume das flores
C9
G/B
Tudo que posso recostar-me no teu peito
Am7
Am7/G
D7
E cheirar os teus cabelos, me embriagar no teu amor
C9
G/B
Tudo que posso... tudo que posso...
Am7
Am7/G
D7
Tudo que posso me embriagar no teu amor

O Senhor Bom
Am

G/B C
O Senhor bom
Am
G/B C
O Senhor bom
F
Am
G
E a sua misericordia
F
Am
G
Dura para Sempre

Bm

Am G/B C
A_lelui_a
Am G/B C
A_lelui_a
F
Am
G
Glorias ao Cordeiro
F
Am
G

A/C#
D
O Senhor bom
Bm
A/C#
D
O Senhor bom
G
Bm
A
E a sua misericordia
G
Bm
A
Dura para sempre
Bm

A/C# D
A_lelui_a
Bm A/C# D
A_lelui_a
G
Bm
A
Glorias ao Cordeiro
G
Bm
A

Glorias ao Cordeiro (sobe 1 tom) Glorias ao Cordeiro

Eu vejo a glria
(intro) A D F#m

E A D F#m

A
D
F#m
E
Eu vejo a glria do Senhor hoje aqui
A
D
F#m
E
A sua mo o seu poder sobre mim
A
D
F#m
E
Os cus abertos hoje eu vou contemplar
Bm
A/C#
D Esus (2parte) Esus na letra lugar
O amor descer nesse lugar
F#m
D
A/C#
E
F#m
Eu quero ver agora o Teu poder
D
A/C#
E
A Tua glria inundando meu ser
F#m
D
A/C#
E
Vou levantar as mos e vou receber

Bm
A/C#
Vou louvando o Teu nome,
(instrumental) F#m

D
E
A
porque sinto o Senhor me tocar

guas profundas
(intro solo)
Am7
F
G
Em
G
A
E|--------------|-------------|-------------|------|------|------|
(4x)
B|--------------|-------------|-------------|------|------|------|
G|------5-4-5---|------5-4-5--|--0-5-0-4-5--|------|------|------|
D|---2----------|---3---------|5------------|--2---|--5---|--7---|
A|--------------|-------------|-------------|--2---|--5---|--7---|
E|--------------|-------------|-------------|--0---|--3---|--5---|
(continuao)
Am7
F
G
Em
G
E|-----------|----------|----------|-----|-----|
B|-----1-0h1-|----1-0h1-|--8--8--8-|8-8-8|8-8-8|
G|-----------|----------|--7--7--7-|7-7-7|7-7-7|
D|----2-2----|-3-3-3----|-5--5--5--|-----|-----|
A|---0-------|----------|----------|-----|-----|
E|-----------|----------|----------|-----|-----|
(intro solo 2x)
Am7
F9
G (Em7
G)
Vem sobre ns como a chuva
Am7
F9
G
(Em7
Faa as guas subirem neste lugar
Am7
F9
G (Em7
G)
Libera Teu rio sem medidas
Am7
F9
G
(Em/G
G)
Vem Tuas guas agitar (2x)

G)

Am7
F9
G
Eu quero nadar, eu quero nadar no Teu rio
Am7
F9
G
Eu quero beber, eu quero beber de Tuas guas
Dm

F
Existem guas
Dm
F
Existem guas
Dm
F
Existem guas
Dm
Mas tem guas

(Em7

G)

(Em7

G)

G G4 G G4
que do nos artelhos
G G4 G G4
que do nos joelhos
G G4 G G4
que do nos lombos
F
G
mais fundas eu sei, eu sei, eu sei

(solo)
E|-12-8-----------8-12-8-------------13-8--------------10-7---------B|-------10-8-10-----------10-8-10--------10-8-10---------8-7-8------

G|------------------------------------------------------------------D|------------------------------------------------------------------A|------------------------------------------------------------------E|------------------------------------------------------------------E|-10-7--------12-10------------------------------------------------B|------8-7-8--------13-12-10-8-10-8--------------------------------G|-----------------------------------10-9-7-9-7-5-7-5---------------(repete 2x tudo)
D|----------------------------------------------------7-5-----------A|------------------------------------------------------------------E|------------------------------------------------------------------Am7
F9
G
............
Am7
F9
G
............
Am7
F9
G
............
Am7
F9
G
............

Nos Santos dos Santos


(intro) E9 A9
E9
A9
Eu no preciso ser reconhecido por ningum
E9
A9
A minha gloria fazer com que conheam a ti
C#m7
B7
A9
E9 F#m
B7
E que diminua eu, Pra que tu cresas Senhor mais e mais.
E9
A9
E como Serafins que cobre o rosto ante a ti
E9
A
Escondo o rosto pra que vejam tua face em mim
C#m7
B7
A7
E9 F#m
Bsus
E que diminua eu, Pra que tu cresas Senhor mais e mais.
A9
E9
F#m
C#m7
No Santo dos Santos a fumaa me esconde s teus olhos me vem
E9
A9
E9 F#m
C#m7
Debaixo de tuas assas o meu abrigo, meu lugar Secreto.
E9
A9
Bsus
E9
S tua graa me basta e tua presena o meu prazer.
E9
A9
Eu no preciso ser reconhecido por ningum
E9
A9
A minha gloria fazer com que conheam a ti
C#m7
B7
A9
E9 F#m
B7
E que diminua eu, Pra que tu cresas Senhor mais e mais.
E9
A9
E como Serafins que cobre o rosto ante a ti

E9
A9
Escondo o rosto pra que vejam tua face em mim
C#m7
B7
A7
E9 F#m
B7
E que diminua eu, Pra que tu cresas Senhor mais e mais.
A9
E9
F#m
C#m7
No Santo dos Santos a fumaa me esconde s teus olhos me vem
E9
A9
E9 F#m
C#m7
Debaixo de tuas assas o meu abrigo, meu lugar Secreto.
E9
A9
Bsus
E9
S tua graa me basta e tua presena o meu prazer.
E9
A9
Tua presena, tua presena meu prazer,
E9
A9
Tua presena, tua presena meu prazer.
(No Santo dos Santos ...) continua...

Quero ser como criana


(intro) C D G D/F# Em C D G
G
Am7
D
Quero ser como criana
G D/F# Em
Te amar pelo que s
Am7 D
G
Voltar a inocncia
e acreditar em Ti
Am7 D
G D/F# Em
Mas s vezes sou levado
pela vontade de crescer
Am7
Torno-me independente
D
C Am D
E deixo simplesmente de crer
C
G/B
No posso viver longe do teu a
C
G/B
No posso viver longe do teu a
C
G/B
No posso viver longe do teu a

Am
D
- mor, Senhor.
Am
D
- fago, Senhor.
Am
D
- brao, Senhor.

C D
G D/F# Em
Abraa-me, abraa-me,
C D
G
Abraa-me com seus braos de amor.

Eu vou viver virada


E|--------------------|---------------------------------------------------------------------|
B|-s 1x-------12-----|-repete|-----------11---------11---------12-----------12---------12--|

G|---------11---------|-direto-------11---------11---------11------------11---------11------|
D|------9-------------|-----------9----------9-----------9------------9----------9----------|
A|--------------------|---------------------------------------------------------------------|
E|--------------------|---------------------------------------------------------------------|
Am7

G
F
Onde era tristeza se ver
Am7
G
F
A dupla honra me ornar
Am7
G
F
Com boas novas proclamar
Am7
G
F
Uma nova histria celebrar
G
F
G

Am
chegada a minha hora
Meu silncio j acabou
Am
Bb
Oua o som da minha grande festa

C
G
Am
F
Eu vou viver uma virada em minha vida eu creio
C
G
Am
G Am Bb
Eu vou viver uma virada
Am

G
F
O que eu achava estar perdido
Am
G
F
E tinha desistido de sonhar
Am
G
F
Meu Deus j decretou: este o meu dia
Dm
C/E F
G
Minha vi-rada festejar

Bendirei
E
F#m7
Bendirei ao meu Senhor
E/G#
F#m7
B7
Louvarei o Teu nome enquanto eu viver
E
F#m7
Cantarei o Teu amor
E/G#
B7
Pois por Ele eu fui alcanado
F#m7
E/G#
Sou teu filho, s meu dono
F#m7
B7
Meu Amado, meu Salvador
E
F#m7
No posso negar que tudo o que sou
E/G#
A
B7

prova do Teu imenso amor


E
F#m7
Que me atraiu, que me alcanou
A
B7
Eu te amo, te amo

E/G#

Toda sorte de benos


(intro 4x)

E/A

D/A

A
E/A
D
A
Pr onde eu for a tua beno me seguir
E/A
D
A
Onde eu colocar as minhas mos prosperar
E/A
A
A minha entrada e a minha sada bendita ser
E/A
D
Pois sobre mim a uma promessa
Bm F#m E
Bm
F#m E
Prosperarei , transbordarei
A
E/A
D
A
Os meus celeiros fartamente se enchero
E/A
D
A
A minha casa ter sempre tua proviso
E/A
D
A
Onde eu puser as plantas dos meus ps Possuirei
E/A
D
Pois sobre mim h uma promessa
Bm F#m E
Bm
F#m E
Prosperarei , transbordarei
A
E
F#m
D
Para direita , para esquerda
A
E
D9/F#
A minha frente , e para trs
A E F#m
D
A
Por todo lado, ,
sou abenoado
D
A
E F#m
Em tudo que eu fao
D
A
E F#m D
Sou abenoado
A E
F#m
D
Toda sorte de bnos
A
E
F#m
O Senhor preparou para mim
D
A
E
F#m
D
E em toda as coisas
A
E
D
Eu sou mais do que vencedor

Agnus dei
G C
G
C C9
Aleluia ! Alelu...uia !

E F#m

C9
C/B
D
G
Poderoso o Senhor nosso Deus
G C C9
G
G
Alelu ...uia! Santo ... Santo
G4 G
D/F#
o Senhor Deus Poderoso
Am7
G/B
Digno de louvor, digno de louvor
G
G
Tu s Santo, Santo
G4 G
D/F#
o Senhor Deus Poderoso

Am7
G/B
Digno de louvor, digno de louvor
G
Tu s Santo !

Am7
G/B
Digno de louvor, digno de louvor
G
Amm !

Mais de Deus
F#m
Glria e fora esto vindo
A
aos coraes quebrantados
E
C#m
E
que clamam por MAIS DE DEUS...
F#m
Aos coraes perdidos
A
aos coraes feridos
E
C#m
E
que clamam por MAIS DE DEUS...
A

Glria que desfaz argumentos


C#m
sofismas e pensamentos que
A
C#m
E
que se levantam contra a adorao
A
Glria que nos traz cativos
C#m
obedincia de Cristo
A
C#m
Glria que nos faz clamar por mais...
A
por MAIS DE DEUS...

C#m
A
por MAIS DE DEUS...por MAIS DE DEUS
C#m
...por MAIS DE DEUS...
E7
Senhor eu quero mais...
A
C#m
eu quero mais de Deus...eu quero mais de Deus...
A
eu quero mais de Deus...
C#m
eu quero mais de Deus...

Os que confiam
D
Os que confiam no senhor
Bm
so como os montes de Sio
G
que no se abalam mas
E
A
A7
permanecem para sempre
D
Como em volta de Jerusalm
Bm
Esto os montes
G
E
A
A7
assim o senhor em volta do seu povo
D
Autoridade e poder
Bm
O domnio em suas mos
G
Pois o senhor deus
E
A
A7
O senhor rei dos povos
D
Cale-se diante dele a terra
Bm
Dobre os joelhos ergam as mos
G
Pois o senhor deus
E
A
A7
O senhor rei dos povos
D
No d, sem Jesus no d
Bm
No d, sem Jesus no d
G
Pra viver no d,
E
sem Jesus no d
G
Pra viver no d,
D

sem Jesus no d...


Jesus, Meu Primeiro Amor
(intro) D

D
Abre os meus ouvidos eu quero ouvir
G
Abre os meus olhos eu quero ver
D
Abre o meu corao quero sentir
A
Em
D
Teu grande amor
Teu grande amor
D
G
Eu quero me apaixonar outra vez
D
G
Eu quero me desperar outra vez
D
G
Eu quero perder o sono outra vez
A
Queimando de amor por Ti
Bm
Eu tenho sede, eu tenho
Bm
Cobre-me com Teu calor,
A
Revela-te a mim
Bm
Eu tenho sede, eu tenho

G
A
fome, fome de Ti (2x)
G
com Teu amor
G
A
fome, fome de Ti

D
Venham todos que querem vida
Bm
Tm sede de gua viva e quer andar na vida
( D

Bm

Bm )

Aclame ao Senhor
A9
E
Meu Jesus, salvador
F#m7
E
D
Outro igual no h
A/C# D
A/E
Todos os dias quero louvar
F#m7
G D/F#
Esus
As maravilhas de teu amor
A9
E
Consolo, abrigo
F#m7
E

Fora e refgio o Senhor


A/C#
Com todo o meu ser
D
A/E
Com tudo o que sou
F#m7
G
D/F# Esus
E
Sempre te ado - ra - rei
A9
F#m7
D
Esus
E
Aclame ao Senhor toda a Terra e cantemos
A9
F#m7
D
Esus
E
Poder, majestade e louvores ao Rei
F#m7
F#m7/E
D7M
Montanhas se prostrem e rujam os mares
E
D/F#
E/G#
Ao som de teu nome
A9
F#m7
D
Esus
E
Alegre te louvo por teus grandes feitos
A9
F#m7
D
Esus
E
Firmado estarei, sempre te amarei
F#m7
F#m7/E
D7M
D/E
A9
Incomparveis so tuas promessas pr mim
B9
G#m7
E
F#sus
F#
Aclame ao Senhor toda a Terra e cantemos
B9
G#m7
E
F#sus
F#
Poder, majestade e louvores ao Rei
G#m7
G#m7/F#
E7M
Montanhas se prostrem e rujam os mares
F# E/G#
F#/A#
Ao som de teu nome
B9
G#m7
E
F#sus
F#
Alegre te louvo por teus grandes feitos
B9
G#m7
E
F#sus
F#
Firmado estarei, sempre te amarei
G#m7
G#m7/F#
E7M
E/F#
B9
Incomparveis so tuas promessas pr mim

Reina em mim
(intro 2x) E
B
(instrumental) E

F#m

C#m

E
B
A
B
E
Sobre toda a terra Tu s o Rei
B
A
B
C#m
Sobre as montanhas e o pr-do-sol
B
A
B
F#m
Uma coisa s, meu desejo
A
B
E
Vem reinar de novo em mim

B
A
B
E
Reina em mim com o Teu poder
B
A
B
C#m
Sobre a escurido, sobre os sonhos meus

B
A
B
F#m
Tu s o Senhor de tudo que sou
A
B
E
Vem reinar em mim, Senhor
(interldio 1) E

F#m

E
B
A
B
Sobre o meu pensar, tudo que
B
A
Faz-me refletir a beleza que
B
A
B
Tu s para mim mais que tudo
A
B
E
Vem reinar de novo em mim

C#m

E
eu falar
B
C#m
h em Ti
F#m
aqui

B
A
B
E
Reina em mim com o Teu poder
B
A
B
C#m
Sobre a escurido, sobre os sonhos meus
B
A
B
F#m
Tu s o Senhor de tudo que sou
A
B
E
Vem reinar em mim, Senhor
(interldio 2) E B F#m A E B F#m A E B F#m A C#m B A
E
B
A
B
Sobre o meu pensar, tudo que
B
A
Faz-me refletir a beleza que
B/Eb
A
B
Tu s para mim mais que tudo
A
B
E
Vem reinar de novo em mim

E
eu falar
B
C#m
h em Ti
F#m
aqui

B
A
B
E
Reina em mim com o Teu poder
B
A
B
C#m
Sobre a escurido, sobre os sonhos meus
B
A
B
F#m
Tu s o Senhor de tudo que sou
A
B
E
Vem reinar em mim, Senhor
B
A
B
E
Reina em mim com o Teu poder
B
A
B
C#m
Sobre a escurido, sobre os sonhos meus
B
A
B
F#m
Tu s o Senhor de tudo que sou
A
B
F#m
Vem reinar em mim, Senhor (2x)
A
B
E
Vem reinar em mim, Senhor

( E B F#m A E B F#m A E B F#m A C#m B A )

Nada sou
Repete este solo do teclado (coloquei ele pra fazer no violo) 2x
final do solo
D#|-------------------------------------------------------|
d#-----------|
A#|-------5----5-----5------5--7--8---8--7--8---7--7------|
A#|-------5---|
F#|----7----5------7----7-----------------------------7---|
F#----7----5-|
C#|-------------------------------------------------------|
C#-----------|
G#|-------------------------------------------------------|
G#|-----------|
D#|-------------------------------------------------------|
D#|-----------|

No

Intro: C9 Em D9
C9
Em
D9
Como o dia sem o sol
C9
Em
D9
Como um pssaro sem ninho
C9
Em
D9
Como a noite sem luar
Am
C9
Como um peixe fora dgua
D9
G9
Assim sou eu
D9
Sem Tua presena em mim
Am
C9 D9 G9
Nada sou, nada sou Senhor
D9
Sem o Teu fluir em mim
Am
C9 D9
Nada sou, nada sou
Repete este solo 2x com distoro
final do solo
D#|-------------------------------------------------------|
d#-----------|
A#|-------5----5-----5------5--7--8---8--7--8---7--7------|
A#|-------5---|
F#|----7----5------7----7-----------------------------7---|
F#----7----5-|
C#|-------------------------------------------------------|
C#-----------|
G#|-------------------------------------------------------|
G#|-----------|
D#|-------------------------------------------------------|
D#|-----------|
C9

Em
Como o dia sem o sol

D9

No

C9

Em
D9
Como um pssaro sem ninho
C9
Em
D9
Como a noite sem luar
Am
C9
Como um peixe fora dgua
D9
G9
Assim sou eu
* Ccoloquei dois tipos de tocar o refro: um com o violo e o outro com
guitarra (ateno: o G5 deve ser tocado com a sua nota padro, ou seja
na 3 casa).
D9
D5
R
Sem Tua presena em mim
presena em mim
E
Am
C9 D9 G9
C5 D5 G5
F
Nada sou, nada sou Senhor
nada sou Senhor
R
D9
D5

Sem o Teu fluir em mim


fluir em mim
O
Am
C9 D9
C5 D5
Nada sou, nada sou
nada sou

G5
Sem Tua
A5
Nada sou,

Sem o Teu
A5
Nada sou,

C9

D9 C9
D9
Eu preciso tanto ter Tua presena em meu viver
C9
Em
Pois nada pode tomar o Teu lugar
Am
G/B
C9 D9
Sou Teu, Tu s meu
*refro tocado na guitarra (ao tocar a nota G5, utilizar em sua 8, ou
seja, na 10 casa)
G5

D5
Sem Tua presena em mim
A5
C5 D5 G5
Nada sou, nada sou Senhor
D5
Sem o Teu fluir em mim
A5
C5 D5
Nada sou, nada sou

Romance
(intro) Am G D Am G D Am G
E |------------------------------------------|
B |------------------------------------------|
G |------------------------------------------|

D |---9-10-10/12-12/14/12---9-10-10/12-9/7---|
A |------------------------------------------|
E |------------------------------------------|
C/G
D9
Me chamaste pelo nome
C
G
Me provaste amor eterno
C/G
D9
As batidas do teu corao
C G
So todas por mim
C/G
D9
Disseste nunca te esquecerei
C
G
E jamais te deixarei
C/G
D9
Voltarei para te buscar
C
Para junto a mim ficar
G
D
Estou a porta, deixa-me entrar
Em
D
C
Cear contigo e sempre ai ficar
G
D
No teu corao, um pedao do cu
Em
D
Am
O selo do Esprito que rasgou o vu
(Em D9 Am Em D9 A9)
D9/A
E9/A
Me chamaste pelo nome
D9/A
A9
Me provaste amor eterno
D9/A
E9/A
As batidas do teu corao
D9/A
A9
So todas por mim
D9/A
E9/A
Disseste nunca te esquecerei
D9/A
A9
E jamais te deixarei
D9/A
E9/A
Voltarei para te buscar
D9/A
Para junto a mim ficar
A9
E/G#
Estou a porta, deixa-me entrar
F#m
E
D
Cear contigo e sempre ai ficar
A9
E/G#
No teu corao, um pedao do cu
F#m
E
D
O selo do Esprito que rasgou o vu
(2x)

(E/G#
E/G#

F#m
F#m

E/G#
E/G#

D9) 6X

A9
E/G#
Estou a porta, deixa-me entrar
F#m
E
D
Cear contigo e sempre ai ficar
A9
E/G#
No teu corao, um pedao do cu
F#m
E
D
O selo do Esprito que rasgou o vu

Abra os olhos do meu corao


(intro) E9 : E9 : B/D# : Badd9/D# : C#m : A : E9 B/D# :
E9
Abra os olhos do meu corao
B/D#
Abra os olhos do meu corao
C#m A
E9 B/D# E9 B/D#
Quero Te ver,
quero Te ver Senhor
B9
C#m
A
B9
Exaltado e bem alto, brilhando a luz da tua glria
B9
C#m
(F#m
G#m
A
Derrame teu amor e poder, pois Tu s Santo,
Santo,
E9
B/D#
Santo, Santo, Santo, Santo, Santo, Santo
C#m
A
E9 B/D# E9 B/D#
Santo, Santo, Santo, quero Te ver

B9 )
Santo

SOLO 1 - ::: E9 : E9 : B/D# : B/D# : C#m : A : E9 B/D# : E9 B/D# :::


SOLO 1 - 4:37
E |-----------------------------------------------12-14B |-----14-----------------------------12-----/12------G |-11b----11pbr--9-11b-9-9------9-11b-----------------D |-------------------------9h11-----------------------A |----------------------------------------------------E |----------------------------------------------------E
B
G
D
A
E

|-14b-14------14-16b-16----19b-19-17-19-16-----------|----------17-----------17-----------------17--------|---------------------------------------------16-14-16
|----------------------------------------------------|----------------------------------------------------|-----------------------------------------------------

E
B
G
D
A
E

|----------------------------------------------------|---------------------------------------14h16h17~~---|-13---------------------------13h14h16--------------|----14---------------13h14h16-----------------------|-------14---12h14h16--------------------------------|-----------------------------------------------------

E
B
G
D
A
E

|----------------------------------19b-19-17-16------|-16h17h19~~--17h19h21~---19--17-----------------19--|----------------------------------------------------|----------------------------------------------------|----------------------------------------------------|-----------------------------------------------------

E
B
G
D
A
E

|----------------------------------------------------|-19br-17---19b-17----------17-----------------------|------------------16br-16---------------------------|----------------------------------------------------|----------------------------------------------------|----------------------------------------------------E9
B/D#
Quero Te ver, quero Te ver
C#m
A
Eu quero Te tocar, eu quero Te abraar
F#m
B9
Quero te ver
SOLO 2 - :::E9 : E9 : B/D# : B/D# : C#m : A : F#m : B9 :::
SOLO 2 - 6:51
E |----------------------------------------------------B |----------------------------------------------------G |--/9-/11-/14-13-9--/11--/13-11--11brp10p9--9h11brp9-D |----------------------------------------------------A |----------------------------------------------------E |----------------------------------------------------E
B
G
D
A
E

|------------------12br------12---12-----------------|-------------12br--------12---------12--------------|-------9-11br---------------------------11br-9------|---/9-------------------------------------------9---|----------------------------------------------------|-----------------------------------------------------

E
B
G
D
A
E

|----------------------------------------------------|-----------------12b-12-12-10-12b--10-10p9-10-9-----|-----9-11-9-11b----------------------------------9--|-/9-------------------------------------------------|----------------------------------------------------|-----------------------------------------------------

E
B
G
D
A
E

|------------------------------------9h11h12--11h12h14
|----------------------------9h10h11-----------------|---------------------8h9h11-------------------------|--------------7h9h11--------------------------------|-------7h9h11---------------------------------------|-7h9h11----------------------------------------------

E
B
G
D
A
E

Alav.
|--12h14h16b_______\---------------------------------|----------------------------------------------------|----------------------------------------------------|----------------------------------------------------|----------------------------------------------------|-----------------------------------------------------