Anda di halaman 1dari 3

Absolute Duo Opening (Absolute Soul)

Tuning:
eb|----------------------------------|
Bb|----------------------------------|
Gb|----------------------------------|
Db|----------------------------------|
Ab|----------------------------------|
Db|----------------------------------|

Intro:
eb|----------------------------------|
Bb|----------------------------------|
Gb|----------------------------------|
Db|-2*-------3*----3-3---------------|
Ab|----2*----------3-3---------------|
Db|----------------3-3---------------|

eb|-------------------------------------------------------7----10--8--7-10|
Bb|-----------------------------5--3-------------7--8--10-----------------|
Gb|--------------------2-h-4-h-5--------/9--7--9--------------------------|
Db|-2---2----2--5-4--5----------------------------------------------------|
Ab|-------5---------------------------------------------------------------|
Db|-----------------------------------------------------------------------|

eb|-------------------------------------------------------7----10-12-14---|
Bb|-----------------------------5--3-------------7--8--10-----------------|
Gb|--------------------2-h-4-h-5--------/9--7--9--------------------------|
Db|-2---2----2--5-4--5----------------------------------------------------|
Ab|-------5---------------------------------------------------------------|
Db|-----------------------------------------------------------------------|

Verse:

eb|-----------------------------------------------------------------------|
Bb|-----------------------------------------------------------------------|
Gb|-----------------------------------------------------------------------|
Db|-----------------------------------------------------------------------|
Ab|-----------------------------------------------------------------------|
Db|2---2---2---2-2---2---2---3-3-3-----2-2---2---2---2---2---2---2---3-3-3|
eb|---------------------------------------------------------------------|
Bb|---------------------------------------------------------------------|
Gb|---------------------------------------------------------------------|
Db|------------------------------------------------------0---0---0---0-0|
Ab|------------------------------------------------------0---0---0---0-0|
Db|2-2---2---2---2---2---2---2---3-3-3-----5-5---5---5---0---0---0---0-0|

eb|--------------------------------------------|
Bb|--------------------------------------------|
Gb|--------------------------------------------|
Db|2--0--2--------2--0--2--0--2--0--2--3-3-3---|
Ab|2--0--2--------2--0--2--0--2--0--2--3-3-3---|
Db|2--0--2--------2--0--2--0--2--0--2--3-3-3---|


eb|--------------------------------------------|
Bb|--------------------------------------------|
Gb|--------------------------------------------|
Db|2--0--2--------2--0--2--0--2--0--2--3-3-3---|
Ab|2--0--2--------2--0--2--0--2--0--2--3-3-3---|
Db|2--0--2--------2--0--2--0--2--0--2--3-3-3---|
eb|-----------------------------------------------------|
Bb|-----------------------------------------------------|
Gb|-----------------------------------------2
|
Db|2--0--2--------2--0--2--0--2--0--2--3-3--2
|
Ab|2--0--2--------2--0--2--0--2--0--2--3-3--0
|
Db|2--0--2--------2--0--2--0--2--0--2--3-3--------------|

Verse Part 2:
eb|-------------------------------------------------------------------------|
Bb|-------------------------------------------------------------------------|
Gb|---------------------------2-2-2-------------------------2-2-2-----------|
Db|2--0--2--3-3-3----2--0--2--2-2-2--2--0--2--3-3-3--2-2-2--2-2-2-----------|
Ab|2--0--2--3-3-3----2--0--2--0-0-0--2--0--2--3-3-3--2-2-2--0-0-0-----------|
Db|2--0--2--3-3-3----2--0--2---------2--0--2--3-3-3--2-2-2------------------|

eb|-------------------------------------------------------------------------|
Bb|-------------------------------------------------------------------------|
Gb|---------------------------2-2-2-------------------------2-2-2-----------|
Db|2--0--2--3-3-3----2--0--2--2-2-2--2--0--2--3-3-3--2-2-2--2-2-2-----------|
Ab|2--0--2--3-3-3----2--0--2--0-0-0--2--0--2--3-3-3--2-2-2--0-0-0-----------|
Db|2--0--2--3-3-3----2--0--2---------2--0--2--3-3-3--2-2-2------------------|

Bridge:
eb|5(nh) -------------(12)---------------------------|
Bb|----------------------(15)------------------------|
Gb|-------------------------(17)---------------------|
Db|--------------------------------------14--12--10--|
Ab|--------------------------------------14--12--10--|
Db|--------------------------------------14--12--10--|

eb|----------------------------------------------------------------------------|
Bb|----------------------------------------------------------------------------|
Gb|----------------------------------------------------------------------------|
Db|7---7---7-7----7-7-----9---9---9-9----9-9------10----11----12----9----------|
Ab|7---7---7-7----7-7-----9---9---9-9----9-9------10----11----12----9----------|
Db|7---7---7-7----7-7-----9---9---9-9----9-9------10----11----12----9----------|

Chorus (Play Along)


eb|-------------------------------------------------------|
Bb|-------------------------9-----------------------------|
Gb|-------------5-----7-----9------5------------7---------|
Db|-2-----5-----5-----7-----9------5------5-----7---------|
Ab|-2-----5-----3-----5-----7------3------5-----5---------|
Db|-2-----5-------------------------------5---------------|
eb|-----------------------------------------|
Bb|-----------------------------------------|
Gb|------------------------7---------5*-----|
Db|-2-----------5----------7----------------|
Ab|-2-----------5----------5-------3----3--2|
Db|-2-----------5---------------------------|
eb|-------------------------------------------------------|
Bb|-------------------------9-----------------------------|
Gb|-------------5-----7-----9------5------------7---------|
Db|-2-----5-----5-----7-----9------5------5-----7---------|
Ab|-2-----5-----3-----5-----7------3------5-----5---------|
Db|-2-----5-------------------------------5---------------|

eb|-------------------------------------------------------------|
Bb|-------------------------------------------------------------|
Gb|5------4------2----------------------------------------------|
Db|5------4------2------0-0---0--0--0--------0-0-0-0-0-0-0------|
Ab|3------2------0------0-0---0--0--0--------0-0-0-0-0-0-0------|
Db|---------------------0-0---0--0--0--------0-0-0-0-0-0-0------|
eb|------------10--11--12------------|
Bb|---------10-----------------------|
Gb|---9--11--------------------------|
Db|12--------------------------------|
Ab|----------------------------------|
Db|----------------------------------|