Anda di halaman 1dari 9

ISABELL SEARCH

Dm Gm C Dm
Intro Dm Gm C A
Bass Bb Gm C Bb F
Gm C A A
Dm Gm
Isabella adalah Gm C
C Dm Dia Isabella
Kisah cinta dua dunia F Dm
Dm Gm Lambang cinta yang lara
Mengapa kita berjumpa Gm C
C A Terpisah kerana
Namun akhirnya terpisah Bb F
Adat yang berbeza
Bb Gm Gm C
Siang jadi hilang Cintaku gugur bersama
C Bb F A A
Ditelan kegelapan malam Daun-daun kekeringan
Gm C
Alam yang terpisah Dm Gm
A A Haluan hidupku
Melenyapkan sebuah kisah C Dm
Terpisah dengan Isabella
Dm Gm Dm Gm
Terbayang lambaiannya Tapi aku terpaksa
C Dm C A
Salju terbakar kehangatan Demi cintaku Isabella
Dm Gm
Dunia dipenuhi Bb Gm
C A Moga dibukakan
Warna berseri bunga cinta C Bb F
Pintu hatimu untukku
Bb Gm Gm C
Kita yang terlena Akan terbentang jalan
C Bb F A
Hingga musim berubah Andainya kau setia
Gm C A
Mentari menyepi Oh Isabella
A A
Menyalah api cinta Outro

Gm C Dm Gm C Dm
Dia Isabella Dm Gm C A
F Dm Bb F A
Lambang cinta yang lara
Gm C
Terpisah kerana
Bb F
Adat yang berbeza
Gm C
Cintaku gugur bersama
A A
Daun-daun kekeringan

Solo
Intro:

----------------|---------------|---------------|----------------|
--1-------1-----|-0-------0-----|-3-------3-----|-1-------1------|
------0-------0-|-----0-------0-|-----0-------0-|-----0-------0--|
----2-------2---|---2-------2---|---2-------2---|---2-------2----|
--3-----3-------|-3-----3-------|-3-----3-------|-3-----3--------|
----------------|---------------|---------------|----------------|

----------------|---------------|---------------|----------------|
--0-------0-----|-3-------3-----|-1-------1-----|-0-------0------|
------2-------2-|-----2-------2-|-----2-------2-|-----2-------0--|
----2-------2---|---2-------2---|---2-------2---|---2-------2----|
--0-----0-------|-0-----0-------|-0-----0-------|-0-----0--------|
----------------|---------------|---------------|----------------|

----------------|---------------|---------------|----------------|
--3-------3-----|-1-------1-----|-0-------0-----|-3-------3------|
------0-------0-|-----0-------0-|-----0-------0-|-----0-------0--|
----2-------2---|---2-------2---|---2-------2---|---2-------2----|
--3-----3-------|-3-----3-------|-3-----3-------|-3-----3--------|
----------------|---------------|---------------|----------------|

----------------|---------------|---------------|------------|
--1-------1-----|-0-------0-----|-3-------3-----|-1-------0--|
------2-------2-|-----2-------2-|-----2-------2-|-----2---0--|
----2-------2---|---2-------2---|---2-------2---|---2--------|
--0-----0-------|-0-----0-------|-0-----0-------|-0-----0-2--|
----------------|---------------|---------------|------------|

Verse:

----------------|---------------|-0-------------|----------------|
--1-------1-----|-3-------3-----|---------1-----|-1-------1------|
--0---0-------0-|-----0-------0-|-----2-------2-|-----2-------0--|
----2-------2---|---0-------0---|---2-------2---|---2-------2----|
--3-----3-------|-2-----2-------|-0-----0-------|-0-----0--------|
----------------|---------------|---------------|----------------|

--3---3---3-----|-3-1---0---|-----0---------|------------|
--------------3-|---------3-|-3-------1-----|-1-----1-3--|
----0-------0---|-----2---2-|-------------2-|-----2---0--|
----------------|-0-----0---|---2---2---2---|---2--------|
----------------|-----------|-0-------------|-0-----0-2--|
--3-----3-------|-----------|---------------|------------|

----------------|---------------|-0-------------|----------------|
--1-------1-----|-3-------3-----|---------1-----|-1-------1------|
--0---0-------0-|-----0-------0-|-----2-------2-|-----2-------0--|
----2-------2---|---0-------0---|---2-------2---|---2-------2----|
--3-----3-------|-2-----2-------|-0-----0-------|-0-----0--------|
----------------|---------------|---------------|----------------|

--3---3---3-----|-3-1---0---|-----0---------|----------------|
--------------3-|---------3-|-3-------1-----|-1-------1------|
----0-------0---|-----2---2-|-------------2-|-----2-------0--|
----------------|-0-----0---|---2---2---2---|---2-------2----|
----------------|-----------|-0-------------|-0-----0--------|
--3-----3-------|-----------|---------------|----------------|

Chorus:
----------------|-----------|---------------|----------------|
--3-------3-----|-3---1---0-|---------1-----|-1-------1------|
------2-------2-|-----------|-2---2-------2-|-----2-------0--|
----0-------0---|---0-----0-|---2-------2---|---2-------2----|
----------------|-----------|-0-----0-------|----------------|
--2-----2-------|-3-----3---|---------------|-3-----3--------|

----------------|-----------|---------------|-----------|
--3---3---3-----|-3---1---0-|---------0-----|-0-h-1--3--|
--------------2-|-----------|-2---2-------2-|--------0--|
----0-------0---|---0-----0-|---2-------2---|-----------|
----------------|-----------|-0-----0-------|-0------2--|
--2-----2-------|-3-----3---|---------------|-----------|

Verse:

----------------|---------------|-0-------------|----------------|
--1-------1-----|-3-------3-----|---------1-----|-1-------1------|
--0---0-------0-|-----0-------0-|-----2-------2-|-----2-------0--|
----2-------2---|---0-------0---|---2-------2---|---2-------2----|
--3-----3-------|-2-----2-------|-0-----0-------|-0-----0--------|
----------------|---------------|---------------|----------------|

--3---3---3-----|-3-1---0---|-----0---------|------------|
--------------3-|---------3-|-3-------1-----|-1-----1-3--|
----0-------0---|-----2---2-|-------------2-|-----2---0--|
----------------|-0-----0---|---2---2---2---|---2--------|
----------------|-----------|-0-------------|-0-----0-2--|
--3-----3-------|-----------|---------------|------------|

----------------|---------------|-0-------------|----------------|
--1-------1-----|-3-------3-----|---------1-----|-1-------1------|
--0---0-------0-|-----0-------0-|-----2-------2-|-----2-------0--|
----2-------2---|---0-------0---|---2-------2---|---2-------2----|
--3-----3-------|-2-----2-------|-0-----0-------|-0-----0--------|
----------------|---------------|---------------|----------------|

--3---3---3-----|-3-1---0---|-----0---------|----------------|
--------------3-|---------3-|-3-------1-----|-1-------1------|
----0-------0---|-----2---2-|-------------2-|-----2-------0--|
----------------|-0-----0---|---2---2---2---|---2-------2----|
----------------|-----------|-0-------------|-0-----0--------|
--3-----3-------|-----------|---------------|----------------|

Chorus:

----------------|-----------|---------------|----------------|
--3-------3-----|-3---1---0-|---------1-----|-1-------1------|
------2-------2-|-----------|-2---2-------2-|-----2-------0--|
----0-------0---|---0-----0-|---2-------2---|---2-------2----|
----------------|-----------|-0-----0-------|----------------|
--2-----2-------|-3-----3---|---------------|-3-----3--------|

----------------|------------|
--3---3---3-----|-3---1---3--|
--------------2-|------------|
----0-------0---|---0-----0--|
----------------|------------|
--2-----2-------|-3-----3----|
Interlude:

--0-------------|-0---0---0---|---------------|----------------|
----------0-----|-------------|---------0-----|-0-------0------|
------5-------5-|-------------|-7---7-------7-|-----7-------0--|
----7-------7---|---7-------7-|---5-------5---|---5-------0----|
--0-----0-------|-0-----0-----|-0-----0-------|-0-----0--------|
----------------|-------------|---------------|----------------|

----------------|-------3-----|-5-------------|----------------|
--6-------0-----|-0-----------|---------0-----|-0-------0------|
------5-------5-|-----5-----5-|-----5-------5-|-----5-------0--|
----3-------3---|---3-----3---|---3-------3---|---3-------0----|
--0-----0-------|-0-----0-----|-0-----0-------|-0-----0--------|
----------------|-------------|---------------|----------------|

--0-------------|----------------|
----------1-----|-0-------0------|
------2-------2-|-----2-------0--|
----2-------2---|---2-------2----|
--0-----0-------|-0-----0--------|
----------------|----------------|

--------------|-------------------|-------------|------------------|
--3-1-0---1-3-|-------0-h-1-3-----|-1-0-----0-1-|---------0-1---0--|
--------------|-0-h-2-----------0-|-----2-------|---0-h-2-----2----|
----0-------0-|-------0-------0---|---3-------3-|-3---------3------|
--------------|-------------------|-------------|------------------|
--3-----3-----|-3-----------3-----|-1-----1-----|-1----------------|

----------------|-------------------------|---------------|----------------
|
--------------0-|-1-p-0-------------------|---------1-----|-0-------
0------|
--2------2------|-------2-p-0-2-p-0-------|-----2-------2-|-----2-------
0--|
------3-----3---|-------------------2-p-0-|-2-2-------2---|---2-------
2----|
----3-----------|-------------------------|-0-----0-------|-0-----
0--------|
--1-----
1-------|-------------------------|---------------|----------------|

--------------|-------------------|-------------|------------------|
--3-1-0---1-3-|-------0-h-1-3-----|-1-0-----0-1-|---------0-1---0--|
--------------|-0-h-2-----------0-|-----2-------|---0-h-2-----2----|
----0-------0-|-------0-------0---|---3-------3-|-3---------3------|
--------------|-------------------|-------------|------------------|
--3-----3-----|-3-----------3-----|-1-----1-----|-1----------------|

----------------|-----------------0---|-3-------------|----------------|
--------------0-|-1-p-0---0-1-h-3---6-|---------5-----|-5-------5------|
--2------2------|-------2-------------|-----5-------5-|-----5-------5--|
------3-----3---|---------------------|---5-------5---|---5-------5----|
----3-----------|---------------------|-3-----3-------|-3-----3--------|
--1-----1-------|---------------------|---------------|----------------|

--3-h-5-3---
3-----------|-----------------------|---------------|----------------|
----------6---6-s-5-p-3-|-5-p-3-5-p-3---3-------|---------1-----|-0-------
0------|
------------------------|-------------5---5-s-4-|-----2-------2-|-----
2-------0--|
------------------------|-----------------------|-2-2-------2---|---
2-------2----|
--3---------------------|-----------------------|-0-----0-------|-0-----
0--------|
------------------------|-----------------------|---------------|----------
------|

----------------------|-------0-------0---5--|
----0-h-1---0-h-1---0-|-1-h-3---1-h-3---6----|
--2-------2-------2---|----------------------|
----------2-----------|----------------------|
--0-------------------|-0--------------------|
----------------------|----------------------|

--3-------------|----------------|
----------5-----|-5-------5------|
------5-------5-|-----5-------5--|
----5-------5---|---5-------5----|
--3-----3-------|-3-----3--------|
----------------|----------------|

--3-h-5-3---3-----------|------------------------|
----------6---6-s-5-p-3-|-5-p-3-5-p-3---3--------|
------------------------|-------------5---5-s-4--|
------------------------|------------------------|
--3---------------------|------------------------|
------------------------|------------------------|

----------------|---------------|---------------|------------|
----------1-----|-0-------0-----|-3-------3-----|-1-------3--|
--2---2-------2-|-----2-------2-|-----2-------2-|-----2---0--|
----2-------2---|---2-------2---|---2-------2---|---2--------|
--0-----0-------|-0-----0-------|-0-----0-------|-0-----0-2--|
----------------|---------------|---------------|------------|

Verse:

----------------|---------------|-0-------------|----------------|
--1-------1-----|-3-------3-----|---------1-----|-1-------1------|
--0---0-------0-|-----0-------0-|-----2-------2-|-----2-------0--|
----2-------2---|---0-------0---|---2-------2---|---2-------0----|
--3-----3-------|-2-----2-------|-0-----0-------|-0-----0--------|
----------------|---------------|---------------|----------------|

--3---3---3-s-5---|-3-1---0---|---1-p-0---------|------------|
----------------3-|---------3-|-3-------------1-|-------1-3--|
----0---------0---|-----2---2-|-----------2-----|-----2---0--|
------------------|-0-----0---|---2---------2---|---2--------|
------------------|-----------|-0-------0-------|-0-----0-2--|
--3-----3---------|-----------|-----------------|------------|

----------------|-0-------------|-0---------------|----------------|
--1-------1-----|-----3---------|---3-p-1-------1-|---------1------|
--0---0-------0-|---------0---0-|-----------2-----|-----2-------0--|
----2-------2---|---0-------0---|---2---------2---|---2-------0----|
--3-----3-------|-2-----2-------|-0-------0-------|-0-----0--------|
----------------|---------------|-----------------|----------------|

--3---3---3-s-5---|-3-1---0---|-----0-------3-|-s-5--------------|
----------------3-|---------3-|-3---1---------|------------------|
----0---------0---|-----2---2-|---------2-----|-------2---2---0--|
------------------|-0-----0---|---2---2---2---|-----2-------0----|
------------------|-----------|-0-------------|---0-----0--------|
--3-----3---------|-----------|---------------|------------------|

Chorus:

----------------|-----------|-0-------------|----------------|
--3---3---3-----|-3---1---0-|---------1-----|-1-------1------|
--------------2-|-----------|-----2-------2-|-----2-------0--|
----0-------0---|---0-----0-|---2-------2---|---2-------2----|
----------------|-----------|-0-----0-------|----------------|
--2-----2-------|-3-----3---|---------------|-3-----3--------|

----------------|-----0-1-|-0-------------|----------------|
--3-------3-----|-3-------|---------1-----|-1-------1------|
------2-------2-|---0---0-|-----2-------2-|-----2-------0--|
----0-------0---|---------|---2-------2---|---2-------2----|
----------------|---------|-0-----0-------|----------------|
--2-----2-------|-3-------|---------------|-3-----3--------|

----------------|-----------|-0-------------|----------------|
--3-------3-----|-3---1---0-|---------1-----|-1-------1------|
------2-------2-|-----------|-----2-------2-|-----2-------0--|
----0-------0---|---0-----0-|---2-------2---|---2-------2----|
----------------|-----------|-0-----0-------|----------------|
--2-----2-------|-3-----3---|---------------|-3-----3--------|

----------------|------------|
--3---3---3-----|-3----------|
--------------2-|-----0---0--|
----0-------0---|---0---2----|
----------------|------------|
--2-----2-------|-3----------|

Outro:

----------------|---------------|---------------|----------------|
----------1-----|-0-------0-----|-3-------3-----|-1-------1------|
--2---2-------2-|-----2-------2-|-----2-------2-|-----2-------2--|
----2-------2---|---2-------2---|---2-------2---|---2-------2----|
--0-----0-------|-0-----0-------|-0-----0-------|-0-----0--------|
----------------|---------------|---------------|----------------|

----------------|---------------|---------------|----------------|
--0-------0-----|-3-------3-----|-1-------1-----|-0-------0------|
------2-------2-|-----2-------2-|-----2-------2-|-----2-------2--|
----2-------2---|---2-------2---|---2-------2---|---2-------2----|
--0-----0-------|-0-----0-------|-0-----0-------|-0-----0--------|
----------------|---------------|---------------|----------------|

----------------|---------------|---------------|----------------|
--3-------3-----|-1-------1-----|-0-------0-----|-3-------3------|
------2-------2-|-----2-------2-|-----2-------2-|-----2-------2--|
----2-------2---|---2-------2---|---2-------2---|---2-------2----|
--0-----0-------|-0-----0-------|-0-----0-------|-0-----0--------|
----------------|---------------|---------------|----------------|

----------------|---------------|---------------|----------------|
--1-------1-----|-0-------0-----|-3-------3-----|-1-------1------|
------2-------2-|-----2-------2-|-----2-------2-|-----2-------2--|
----2-------2---|---2-------2---|---2-------2---|---2-------2----|
--0-----0-------|-0-----0-------|-0-----0-------|-0-----0--------|
----------------|---------------|---------------|----------------|

----------------|---------------|---------------|----------------|
--0-------0-----|-3-------3-----|-1-------1-----|-0-------0------|
------2-------2-|-----2-------2-|-----2-------2-|-----2-------2--|
----2-------2---|---2-------2---|---2-------2---|---2-------2----|
--0-----0-------|-0-----0-------|-0-----0-------|-0-----0--------|
----------------|---------------|---------------|----------------|

----------------|---------------|---------------|-----|
--3-------3-----|-1-------1-----|-0-------0-----|-3~--|
------2-------2-|-----2-------2-|-----2-------2-|-----|
----2-------2---|---2-------2---|---2-------2---|-----|
--0-----0-------|-0-----0-------|-0-----0-------|-0~--|
----------------|---------------|---------------|-----|

Tablature Legend
----------------

h - hammer on
s - slide
p - pull off
~ - let the note ring
Intro: C G Am F

Verse 1:

C G Am
Go ahead as you waste your days with thinking
F
When you fall everyone stands
C G Am
Another day and you've had your fill of sinking
F
With the life held in your
C(let ring) G(let ring)
Hands are shaking cold
Am(let ring) F(let ring)
These hands are meant to hold

Speak to me

Chorus:
C G
When all you got to keep is strong
Am F
Move along Move along Like I know ya do
C G
And even when your hope is gone
Am F
Move along Move along Just to make it through
C G
Move along
Am F
Move along

Verse 2:

C(strum) G(strum) Am
So a day when you've lost yourself completely
F
Could be a night when your life ends
C G Am
Such a heart that will lead you to deceiving
F
All the pain held in your
C(let ring) G(let ring)
Hands are shaking cold
Am(let ring) F(let ring)
Your hands are mine to hold

Speak to me

Chorus:

C G
When all you got to keep is strong
Am F
Move along Move along Like I know ya do
C G
And even when your hope is gone
Am F
Move along Move along Just to make it through
C G
Move along
(Go on, Go on, Go on, Go on)
Am F
When everything is wrong
C G
We move along
(Go on, Go on, Go on, Go on)
Am F
When everything is wrong
C(let ring)
We move aloooooong (along)
C(let ring)
Aloooooong (along)
C(let ring)
Aloooooong (along)
C(let ring) F(let ring)
Aloooooooooooong

Piano Part:

C(let ring) G(let ring)


When all you got to keep is strong
Am(let ring) F(let ring)
Move along Move along Like I know ya do
C(let ring) G(let ring)
And even when your hope is gone
Am(let ring) F(let ring)
Move along Move along Just to make it through

Chorus: x2

C G
When all you got to keep is strong
Am F
Move along Move along Like I know ya do
C G
And even when your hope is gone
Am F
Move along Move along Just to make it through
C G
Move along
(Go on, Go on, Go on, Go on)
Am F
Right back what is wrong
C G
we move along
(Go on, Go on, Go on, Go on)
Am F
Right back what is wrong
C G
We move along
(Go on, Go on, Go on, Go on)
Am F
Right back what is wrong
C G
we move aloooooooong(faded)
Am F
Right back what is wrong(very faded)
C(let ring)
We move along(very faded)