Anda di halaman 1dari 2

Ai yori Aoshi OP - Towa no Hana guitar cover (solo)

Song : - Towa no Hana


Artist : - Youko Ishida(Yoko Ishida)
Anime : OP - Ai yori Aoshi OP
Play : Capo 1
Tuning : Drop D
Arranged for solo-guitar by animelodies1

Intro.

|=1===2===3===4===5===6===7===8===|=1===2===3===4===5===6===7===8===|=1===2===3===4===5===6===7===8===|=1===2===3===4===5===6===7===8===|
|-0-------------------0---2---3---|-5-------3--->----------->-------|---------------------------------|---------------------------------|
|-1------------------->-----------|-------------3-----------0-------|-1-------------------0---/---3---|->-------------------------------|
|-0------------------->-----------|---------------------------------|-------------0-----------2---0---|->---------------------------0---|
|---------------------------------|---------------------------------|---------2-----------------------|-------------------------0-------|
|-3-------------------------------|-2-------------------------------|-0-------------------------------|---------------------0-----------|
|---------------------------------|-------------2-------------------|-----------------------------0---|->-------------------------------|

|=1===2===3===4===5===6===7===8===|
|---------------------------------|
|->-----------------------0---1---|
|-/-------------------------------|
|-4-------------------------------|
|->-------------------------------|
|-0-------------------------------|

A
|=1===2===3===4===5===6===7===8===|=1===2===3===4===5===6===7===8===|=1===2===3===4===5===6===7===8===|=1===2===3===4===5===6===7===8===|
|---------------------------------|---------------------------------|---------------------------------|---------------------------------|
|-3--->--->--->--->--->---3-------|-3--->--->--->--->--->---3-------|-3-----------1-----------0-------|-1---------------------------0---|
|---------2---4----------->-------|->-----------4----------->-------|---------0-----------0-----------|->-----------------------2-------|
|-----0------------------->-------|->---0---5--------------->-------|-----2---------------------------|->-------------------------------|
|---------------------------------|-2-------------------------------|-3-------------------------------|->-------------------------------|
|-5-------------------------------|---------------------------------|---------------------------------|---------------------------------|

|=1===2===3===4===5===6===7===8===|=1===2===3===4===5===6===7===8===|=1===2===3===4===5===6===7===8===|=1===2===3===4===5===6===7===8===|
|---------------------------------|---------------------------------|---------------------------------|---------------------------------|
|-1-----------------------1---1---|-1--->--->---3-------------------|-1-----------------------0-------|-0-----------------------0---1---|
|-------------0-------------------|---------2---------------2-------|-0-----------0-------------------|-0-------------------------------|
|---------2-----------------------|-----4---------------4-----------|---------0-----------0-----------|---------------------------------|
|-0-------------------------------|---------------------------------|---------------------------------|---------------------------------|
|---------------------------------|-0-------------------------------|-5-------------------------------|-5-------------------------------|

|=1===2===3===4===5===6===7===8===|=1===2===3===4===5===6===7===8===|=1===2===3===4===5===6===7===8===|=1===2===3===4===5===6===7===8===|
|---------------------------------|---------------------------------|-------------0-------------------|->--------------->---------------|
|-3--->--->--->--->--->---3---3---|-3--->--->--->--->--->---3---3---|-3-----------/-----------1-------|->--------------->-----------0---|
|---------2---4----------->-------|->-----------4----------->-------|---------0-----------0-----------|->--------------->-------2-------|
|-----0------------------->-------|->---0---5--------------->-------|-----2---------------------------|->---------------/---------------|
|---------------------------------|-2-------------------------------|-3-------------------------------|->---------------2---------------|
|-5-------------------------------|---------------------------------|---------------------------------|---------------------------------|

|=1===2===3===4===5===6===7===8===|=1===2===3===4===5===6===7===8===|=1===2===3===4===5===6===7===8===|=1===2===3===4===5===6===7===8===|
|---------------------------------|---------------------------------|---------------------------------|---------------------------------|
|-1-----------------------1---1---|-1-----------0-----------/-------|-------------------------0-------|-0--------------->---------------|
|-------------0-------------------|---------0--->-----------2-------|-2-----------------------/-------|-0--------------->---------------|
|---------2-----------------------|-2-----------0-----------/-------|---------------------------------|---------------------------------|
|-0-------------------------------|-/-----------------------3-------|-3----------------------->-------|-----------------2---------------|
|---------------------------------|---------------------------------|---------------------------------|-5-------------------------------|

B

|=1===2===3===4===5===6===7===8===|=1===2===3===4===5===6===7===8===|=1===2===3===4===5===6===7===8===|=1===2===3===4===5===6===7===8===|
|-0---------------------------0---|-/-------------------------------|-2-----------3-----------3-------|->--------------->--->--->--->---|
|-1-------------------1---1-------|-7-----------------------0-------|->-----------------------0-------|->--------------->---/-------3---|
|-------------0-------------------|-------------4-------------------|---------0---------------0-------|->-----------0--->---/---2-------|
|---------2-----------------------|---------4-----------------------|-----2------------------->-------|->-------2-------/---0-----------|
|-3-------------------------------|-6-----------------------2-------|---------------------------------|---------------------------------|
|---------------------------------|---------------------------------|-2----------------------->-------|-2---------------0---------------|

|=1===2===3===4===5===6===7===8===|=1===2===3===4===5===6===7===8===|=1===2===3===4===5===6===7===8===|=1===2===3===4===5===6===7===8===|
|-0-------------------0---0---3---|-2-------0------->---------------|---------------------------------|---------------------------------|
|-1-------------------------------|-3------->-------3---------------|-1-----------------------3---1---|-0--------------->---------------|
|-------------0-------------------|-------------------------2-------|-0-----------0----------->-------|-0--------------->---------------|
|---------2-----------------------|-0--------------->---------------|---------0-----------0--->-------|->--------------->---------------|
|-3-------------------------------|---------------------------------|---------------------------------|---------------------------------|
|---------------------------------|-----------------0---------------|-5-----------------------0-------|-5---------------4---------------|

|=1===2===3===4===5===6===7===8===|=1===2===3===4===5===6===7===8===|=1===2===3===4===5===6===7===8===|=1===2===3===4===5===6===7===8===|
|-0-----------------------0---/---|-----------------5------->-------|-3-----------2-----------3-------|-7------->------->-------5---7---|
|-------------0-------0-------8---|-7------->------->------->-------|-0----------->----------->-------|->------->-------0------->-------|
|---------0-----------------------|-/-------4------->-------4-------|---------0--->----------->-------|->-------0------->------->-------|
|---------------------------------|---------------------------------|---------------------------------|---------------------------------|
|-7-------------------------------|-6-------------------------------|-5-------------------------------|-4-------------------------------|
|---------------------------------|---------------------------------|---------------------------------|---------------------------------|


|=1===2===3===4===5===6===7===8===|=1===2===3===4===5===6===7===8===|=1===2===3===4===5===6===7===8===|=1===2===3===4===5===6===7===8===|
|-8-----------7-------------------|--------------------------7------|-5------->--->---/---------------|-----------------3---2---0-------|
|-5-----------------------8-------|->-------5-------8-------->------|-----------------8------->--->---|-7-------/-------------------3---|
|---------5---------------5-------|->---------------5-------->------|-------------7----------->---7---|-7-------/-----------------------|
|---------------------------------|---------------------------------|---------7--------------->--->---|-7-------/-----------------------|
|-0-----------------------0-------|->-------------------------------|-5-----------------------0--->---|-5-------/-----------------------|
|---------------------------------|---------------------------------|---------------------------------|---------------------------------|

(1)
Ai yori Aoshi OP - Towa no Hana guitar cover (solo)

Chorus
|=1===2===3===4===5===6===7===8===|=1===2===3===4===5===6===7===8===|=1===2===3===4===5===6===7===8===|=1===2===3===4===5===6===7===8===|
|-0---------------3---2---0-------|-0---------------3---2---0-------|-0----------->-----------0-------|->---------------3---2---0-------|
|-------------1--->-----------3---|-------------3--->-----------3---|-------------3----------->-------|-0--------------->-----------3---|
|---------0--->-------------------|---------2--->-------------------|---------------------0-----------|->-----------0--->---------------|
|---------------------------------|---------------------------------|---------2-------2---------------|->-------2-------/---------------|
|-3-------------------------------|---------------------------------|---------------------------------|---------------------------------|
|---------------------------------|-0-------------------------------|-2-------------------------------|-2---------------0---------------|

|=1===2===3===4===5===6===7===8===|=1===2===3===4===5===6===7===8===|=1===2===3===4===5===6===7===8===|=1===2===3===4===5===6===7===8===|
|-0---------------3---2---0-------|-0-------0--->-----------0-------|-7---------------/---------------|-----------------3---2---0-------|
|-------------1--->-----------3---|-------------3--->------->-------|-------------0---/-------3-------|-----------------------------3---|
|---------0--->-------------------|---------------------2-----------|---------0-------2------->-------|-0------->------->---------------|
|---------------------------------|-----------------4---------------|-----0----------->------->-------|-/-------2-------/---------------|
|-3-------------------------------|---------------------------------|---------------------------------|---------------------------------|
|---------------------------------|-0-------------------------------|-5---------------4---------------|-2---------------0---------------|

|=1===2===3===4===5===6===7===8===|=1===2===3===4===5===6===7===8===|=1===2===3===4===5===6===7===8===|=1===2===3===4===5===6===7===8===|
|-0---------------3---2---0-------|-0---------------3---2---0-------|-0----------->-----------0-------|->-------------------------------|
|-------------1--->-----------3---|-------------3--->-----------3---|-------------3----------->-------|-0---------------0-------3-------|
|---------0--->-------------------|---------2--->-------------------|---------------------0-----------|->-------------------------------|
|---------------------------------|---------------------------------|---------2-------2---------------|-/-------0-----------------------|
|-3-------------------------------|---------------------------------|---------------------------------|---------------------------------|
|---------------------------------|-0-------------------------------|-2-------------------------------|-0-------------------------------|


|=1===2===3===4===5===6===7===8===|=1===2===3===4===5===6===7===8===|=1===2===3===4===5===6===7===8===|=1===2===3===4===5===6===7===8====|
|-------------------------7-------|-5-----------3-----------2-------|-------------------------5-------|-5-----------------------3---p2---|
|-5-----------5-------------------|---------------------0-----------|-8-----------------------/-------|-7-----------------------/--------|
|-5-------------------5-----------|---------0-------0---------------|-5---------------5---------------|-7-----------------------/--------|
|---------5-------5---------------|---------------------------------|---------5-----------------------|-/--------------------------------|
|-3-------------------------------|-2-------------------------------|-0-------------------------------|->----------------------->--------|
|---------------------------------|---------------------------------|---------------------------------|-0----------------------->--------|

End.
|=1===2===3===4===5===6===7===8===|=1===2===3===4===5===6===7===8===|=1===2===3===4===5===6===7===8===|=1===2===3===4===5===6===7===8===|
|-3-------------------------------|---------------------------------|---------------------------------|---------------------------------|
|-0-------------------------------|-----------------3---------------|---------------------------------|---------------------------------|
|-----------------0---------------|-2-------------------------------|-0---------------------------0---|-2-------------------------------|
|---------0---------------0-------|---------0---------------0-------|-----------------2-------4---/---|-----------------0---------------|
|---------------------------------|---------------------------------|---------2-----------------------|---------0---------------0-------|
|-5-------------------------------|-4-------------------------------|-2-------------------------------|-0-------------------------------|


|=1===2===3===4===5===6===7===8===|=1===2===3===4===5===6===7===8===|
|---------------------------------|---------------------------------|
|---------------------------------|-0-------------------------------|
|-0---------------0-------2-------|-0-------------------------------|
|---------0-----------------------|-0-------------------------------|
|---------------------------------|---------------------------------|
|-5-------------------------------|-5-------------------------------|

> = Prolong -
/ = Staccato -
s = Slide -
h = Hammer on -
p = Pull off -
b = Bending -
r = release bend -
X = Mute -
x = Slap - ()
N.H. = Natural Harmonics -
T.H. = Touch Harmonics -
P.M. = Palm Mute -
tp = Tapping -
= Down-stroke
= Up-stroke

(2)