Anda di halaman 1dari 5

Tabbed By: syarifphmy / -MAX1MUS-

Bodysurfing performed by Honoka & Azita as seen in this video https://www.youtube.com/


watch?v=O4u8n_CjUDY
You can go solo, otherwise player 2 plays the chords.

Gm
A|-13----10-12-13----10-12-13----10-12-13-12-10-13-12----|
E|----10----------10----------10-------------------------|
C|-------------------------------------------------------|
G|-------------------------------------------------------|

F
A|---8-10-12---8-10-12---8-10-12-10-8-12-10--------------|
E|-8---------8---------8---------------------------------|
C|-------------------------------------------------------|
G|-------------------------------------------------------|

Eb D Eb D
A|---6-8-10---6-8-10---6-8-10-8-6-10-5--6--5-------------|
E|-6--------6--------6---------------5--6--5-------------|
C|-----------------------------------6--7--6-------------|
G|-----------------------------------7--8--7-------------|

Gm
A|-13----10-12-13----10-12-13----10-12-13-12-10-13-12----|
E|----10----------10----------10-------------------------|
C|-------------------------------------------------------|
G|-------------------------------------------------------|

F
A|---8-10-12---8-10-12---8-10-12-10-8-12-10--------------|
E|-8---------8---------8---------------------------------|
C|-------------------------------------------------------|
G|-------------------------------------------------------|

Eb D Eb D
A|---6-8-10---6-8-10---6-8-10-8-6-10-5--6--5-------------|
E|-6--------6--------6---------------5--6--5-------------|
C|-----------------------------------6--7--6-------------|
G|-----------------------------------7--8--7-------------|

Gm Gm
A|-1-1-1-1-1-1-1-1-0-0-0-0-0-0-0-0-1--1--5-5-5-5-5-5-5-5-3-3-3-3-3-3-3-3-1--1----------
-----|
E|-3----------------------------------3-------------------------------------3----------
-----|
C|-2----------------------------------2-------------------------------------2----------
-----|
G|-0----------------------------------0-------------------------------------0----------
-----|

F F
A|-0-3-3-3-3/1-1-1-1-0-3-3-3-3/1-1-1-1-0-----------------|
E|-1-5-5-5-5/3-3-3-3-1-5-5-5-5/3-3-3-3-1-----------------|
C|-0-----------------0-----------------0-----------------|
G|-2-----------------2-----------------2-----------------|

Gm Gm
A|-1-1-1-1-1-1-1-1-0-0-0-0-0-0-0-0-1--1--5-5-5-5-5-5-5-5-3-3-3-3-3-3-3-3-1--1----------
-----|
E|-3----------------------------------3-------------------------------------3----------
-----|
C|-2----------------------------------2-------------------------------------2----------
-----|
G|-0----------------------------------0-------------------------------------0----------
-----|

F F
A|-0-3-3-3-3/1-1-1-1-0-3-3-3-3/1-1-1-1-0-----------------|
E|-1-5-5-5-5/3-3-3-3-1-5-5-5-5/3-3-3-3-1-----------------|
C|-0-----------------0-----------------0-----------------|
G|-2-----------------2-----------------2-----------------|

Gm Gm
A|-1-----------------------5-----------------------------|
E|-3-----------------------6-----------------------------|
C|-2-----------------------7-----------------------------|
G|-0-----------------------0-----------------------------|

C Gm C Gm
A|---0-1-5-3--7--1-0-1-0-1-----0-1-5-3--7--1-0-1-0-1-----|
E|-3-------0--8------3-3-3---3-------0--8------3-3-3-----|
C|---------0--7------2-2-2-----------0--7------2-2-2-----|
G|---------0--0------0-0-0-----------0--0------0-0-0-----|

Gm F
A|-1----------------------0-----------------------------------|
E|-3-3-3-3-3-3-5-6-6-6-5--3--1-1-1-1-1-1-3-5-5-5-3-1----------|
C|-2----------------------0-----------------------------------|
G|-0----------------------2-----------------------------------|

Eb D Eb D
A|-------------------------5--6--5----------------------------|
E|-3----------------------------------------------------------|
C|-3-3-3-3-3-3-5-7-7-7-5-3-2--3--2----------------------------|
G|-3----------------------------------------------------------|

Gm F
A|-1-----------0-0h1-1-1-3-3/5-5--10-8-5-8-10-8-5-------------|
E|-3-3-3-3-3-3------------------------------------------------|
C|-2----------------------------------------------------------|
G|-0----------------------------------------------------------|

Eb D Eb D
A|--------10-10-10-8-8-6-6-5-5-6-5-5-5-5-6-5-5-5-5-6-5-5-5-5-6-5-5-5-5-6-5-5---|
E|-11b-11----------------------------------------------------------------------|
C|-----------------------------------------------------------------------------|
G|-----------------------------------------------------------------------------|

Gm F
A|-1-1-1-3/5-5-5-3-1-3-3-3-3-3-3-3-3--8-8-8-8/0------------------|
E|-3-------------------------------------------------------------|
C|-2-------------------------------------------------------------|
G|-0-------------------------------------------------------------|

Eb D Eb D Gm F Eb D Eb D
A|-8/10-10-10/12-12-12/10-12/10/8-8-8/10-10-10/5-5/12-12-|
E|-------------------------------------------------------|
C|-5/7--7---7/9--9---9/7---9/7 /5-5-5/7--7---7/2-2/9--9--|
G|-------------------------------------------------------|

Gm
A|-13----10-12-13----10-12-13----10-12-13-12-10-13-12----|
E|----10----------10----------10-------------------------|
C|-------------------------------------------------------|
G|-------------------------------------------------------|

F
A|---8-10-12---8-10-12---8-10-12-10-8-12-10--------------|
E|-8---------8---------8---------------------------------|
C|-------------------------------------------------------|
G|-------------------------------------------------------|

Eb D Eb D
A|---6-8-10---6-8-10---6-8-10-8-6-10-5--6--5-------------|
E|-6--------6--------6---------------5--6--5-------------|
C|-----------------------------------6--7--6-------------|
G|-----------------------------------7--8--7-------------|

Gm
A|-13----10-12-13----10-12-13----10-12-13-12-10-13-12----|
E|----10----------10----------10-------------------------|
C|-------------------------------------------------------|
G|-------------------------------------------------------|

F
A|---8-10-12---8-10-12---8-10-12-10-8-12-10--------------|
E|-8---------8---------8---------------------------------|
C|-------------------------------------------------------|
G|-------------------------------------------------------|

Eb D Eb D
A|---6-8-10---6-8-10---6-8-10-8-6-10-5--6--5-------------|
E|-6--------6--------6---------------5--6--5-------------|
C|-----------------------------------6--7--6-------------|
G|-----------------------------------7--8--7-------------|

Gm F Eb D Eb D
A|-1-------------0-------------1-------------0--1--0-----|
E|-3-------------1-------------3-------------2--3--2-----|
C|-2-------------0-------------3-------------2--3--2-----|
G|-0-------------2-------------3-------------2--3--2-----|

Gm F Eb D Eb D
A|-5-------------8-7-8---------6-------------5--6--5-----|
E|-6-------------5-4-5-----------------------5--6--5-----|
C|-7-------------5-4-5---------3-------------6--7--6-----|
G|---------------5-4-5-----------------------7--8--7-----|

Gm F Gm
A|13-12-10-13-12-10-13-12-10-13-12-10-13-12-10-13-10-13-10|
E|--------------------------------------------------------|
C|--------------------------------------------------------|
G|--------------------------------------------------------|

F Eb F
A|-12-10-8-12-10-8-12-10-8-12-10-8-12-10-8-12-8-12-8-----|
E|-------------------------------------------------------|
C|-------------------------------------------------------|
G|-------------------------------------------------------|

Eb D Eb
A|-10-8-6-10-8-6-10-8-6-10-8-6-10-8-6-10-6-10-6----------|
E|-------------------------------------------------------|
C|-------------------------------------------------------|
G|-------------------------------------------------------|

D Eb D
A|-0-5-0-6-0-8-0-10-0-12-0-13-0-15-0 17------------------|
E|-------------------------------------------------------|
C|-------------------------------------------------------|
G|-------------------------------------------------------|

Gm F Gm
A|13-12-10-13-12-10-13-12-10-13-12-10-13-12-10-13-10-13-10|
E|--------------------------------------------------------|
C|--------------------------------------------------------|
G|--------------------------------------------------------|

F Eb F
A|-12-10-8-12-10-8-12-10-8-12-10-8-12-10-8-12-8-12-8-----|
E|-------------------------------------------------------|
C|-------------------------------------------------------|
G|-------------------------------------------------------|

Eb D Eb
A|-10-8-6-10-8-6-10-8-6-10-8-6-10-8-6-10-6-10-6----------|
E|-------------------------------------------------------|
C|-------------------------------------------------------|
G|-------------------------------------------------------|

D Eb D
A|-0-5-0-6-0-8-0-10-0-12-0-13-0-15-0 17------------------|
E|-------------------------------------------------------|
C|-------------------------------------------------------|
G|-------------------------------------------------------|

Gm
A|-13----10-12-13----10-12-13----10-12-13-12-10-13-12----|
E|----10----------10----------10-------------------------|
C|-------------------------------------------------------|
G|-------------------------------------------------------|

F
A|---8-10-12---8-10-12---8-10-12-10-8-12-10--------------|
E|-8---------8---------8---------------------------------|
C|-------------------------------------------------------|
G|-------------------------------------------------------|

Eb D Eb D
A|---6-8-10---6-8-10---6-8-10-8-6-10-5--6--5-------------|
E|-6--------6--------6---------------5--6--5-------------|
C|-----------------------------------6--7--6-------------|
G|-----------------------------------7--8--7-------------|

Gm
A|-13----10-12-13----10-12-13----10-12-13-12-10-13-12----|
E|----10----------10----------10-------------------------|
C|-------------------------------------------------------|
G|-------------------------------------------------------|

F
A|---8-10-12---8-10-12---8-10-12-10-8-12-10--------------|
E|-8---------8---------8---------------------------------|
C|-------------------------------------------------------|
G|-------------------------------------------------------|

Eb D Eb D Gm
A|---6-8-10---6-8-10---6-8-10-8-6-10-5--6--5----5--------|
E|-6--------6--------6---------------5--6--5----6--------|
C|-----------------------------------6--7--6----7--------|
G|-----------------------------------7--8--7----0--------|

************************************

| h Hammer-on
| b Bend
| / Slide up