Anda di halaman 1dari 3

Another Brick In The Wall, Part 2

Pink Floyd
Tom: C
Primeira Parte:
Riff 1 (2x) Dm
We dont need no education
Riff 1 (2x) Dm
We dont need no thought control
Riff 1 (2x) Dm
No dark sarcasm in the classroom
Riff 1 (2x) Dm
Teachers leave them kids alone

Backing track da msica:

Riff 1
E|----5--7--10--7--------------------|
B|----6--8--9---8--------------------|
G|----7--9--8---9--------------------|
D|----7--9--8---9--------------------|
A|----5--7--10--7--------------------|
E|-----------------------------------|

Segunda Parte:
G Dm Riff 2
Hey! Teacher! leave them kids alone

Riff 2
E|---10-10-9-9-7-7-7-5-5--------------|
B|---10-10-9-9-8-8-8-6-6--------------|
G|------------------------------------|
D|------------------------------------|
A|------------------------------------|
E|------------------------------------|

F C Dm
All in all it's just another brick in the wall
F C Dm
All in all you're just another brick in the wall

Primeira Parte:
Riff 1 (2x) Dm
We dont need no education
Riff 1 (2x) Dm
We dont need no thought control
Riff 1 (2x) Dm
No dark sarcasm in the classroom
Riff 1 (2x) Dm
Teachers leave them kids alone

Segunda Parte:
G Dm Riff 2
Hey! Teacher! leave them kids alone
F C Dm
All in all you're just another brick in the wall
F C Dm
All in all you're just another brick in the wall
Solo:
E|---------------------------------------------------|
B|-13p10----10-------15-13b15---10-10-x-10-----------|
G|-------12----12/14------------10-10-x-10-----------|
D|---------------------------------------------------|
A|---------------------------------------------------|
E|---------------------------------------------------|

E|---------------------------------------------------|
B|-13-b15-b17-r15-r13~---13p10-----------------------|
G|-----------------------------12-12b14~-------------|
D|---------------------------------------------------|
A|---------------------------------------------------|
E|---------------------------------------------------|

E|---------------------------------------------------|
B|------------------------10---10-10-----------------|
G|-10p9----9-------10-----10---10-10-----------------|
D|------12---10/12----12~----------------------------|
A|---------------------------------------------------|
E|---------------------------------------------------|

E|---------------------------------------------------|
B|-10-10----10-10----12-12-10~\----------------------|
G|-10-10----10-10----12-12-10~\----------------------|
D|-------12-------12---------------------------------|
A|---------------------------------------------------|
E|---------------------------------------------------|

E|----13b15r13-13p12-13p12---------------------------|
B|---x---------------------13-b15-b17-b18-r13-b15----|
G|--x------------------------------------------------|
D|-x-------------------------------------------------|
A|---------------------------------------------------|
E|---------------------------------------------------|

E|----------10---------------------------------------|
B|-------10----13p10---------------------------------|
G|-12b14-------------12--b14r12p10--12p10-----10p7---|
D|----------------------------------------12-------10|
A|---------------------------------------------------|
E|---------------------------------------------------|

E|---------------------------------------------------|
B|---------------------------------------------------|
G|-7p5-----------------------------------------------|
D|-----7--10p7---------------------------------------|
A|-------------10--10p8----------10p8----------------|
E|----------------------10-8-10-------10-8-10\-------|

E|---------------------------------------------------|
B|---------5h6p5--------------------6b---------------|
G|-----5-7-------7-7p5----5/7-7-7p5------------------|
D|-5/7-----------------7-----------------------------|
A|---------------------------------------------------|
E|---------------------------------------------------|

E|---------------------------------------------------|
B|-13b15--13-b15-b17-r15-r13~------------------------|
G|---------------------------------------------------|
D|---------------------------------------------------|
A|---------------------------------------------------|
E|---------------------------------------------------|

E|----15b17--13--------13----15b17~-17r15------------|
B|---x---------15--/15----15--------------15---------|
G|--x------------------------------------------------|
D|-x-------------------------------------------------|
A|---------------------------------------------------|
E|---------------------------------------------------|

E|-17b20-b20--20b22--20-17--20p17--------------------|
B|---------------------------------------------------|
G|---------------------------------------------------|
D|---------------------------------------------------|
A|---------------------------------------------------|
E|---------------------------------------------------|

E|---------------------------------------------------|
B|-------------------------12-----10---12\10~--------|
G|-10-10-10----------------12-----10---12\10~--------|
D|----------12~--x-x-10/12-----12--------------------|
A|---------------------------------------------------|
E|---------------------------------------------------|

E|---------------------------------------------------|
B|---------------------------------------------------|
G|--------------7~-----------------------------------|
D|-x-x-10p7-x-x-----x-5p3-x-x-3-x-3p0----------------|
A|---------------------------------------------------|
E|---------------------------------------------------|