Anda di halaman 1dari 2

Noite Feliz Rio Abaixo

G D C G7
D|1|-0----2---0----------0----2---0---------7---7----4-----5----5----0-
B|2|-0----1---0-----0----0----1---0----0----7---7----3-----5----5----0-
G|3|----------------0------------------0-------------------------------
D|4|-------------------------------------------------------------------
G|5|-------------------------------------------------------------------
1. Noi te fe liz, noi te fe liz, se nhor, Deus de amor
2. Noi te fe liz, noi te fe liz Je sus, Deus da luz
3 Noi te fe liz, noi te fe liz Eisqueno ar vem can tar

C G
1|-2----2------5-----4------2------0-----2-----0-------------
2|-1----1------5-----3------1------0-----1-----0-----0-------
3|---------------------------------------------------0-------
4|-----------------------------------------------------------
5|-----------------------------------------------------------
1.Po bre zi nho nas ceu em Be lm
2.Quo a f vel teu co ra o
3.Aos pas to res, seus an jos no cu

C G
1|-2-------2------5------4-----2-----0------2-----0---------
2|-1-------1------5------3-----1-----0------1-----0------0--
3|-------------------------------------------------------0--
4|----------------------------------------------------------
5|----------------------------------------------------------
1. Eis na la pa Je sus, nos so bem.
2. Que qui ses te nas cer nos so irmo
3. A nunci ando a che ga da de Deus

D G G D G
1|-7-----7------10----7----4----5---9----5----0----------------------0--
2|-7-----7------10----7----3----5---8----5----0----0---3----1--------0-
3|-------------------------------------------------0---4----2----2---0-
4|-------------------------------------------------------------------0-
5|-------------------------------------------------------------------0-
1.Dor (me em) paz, Je su__us. Dor me em paz, Je sus
2. E (a ns) to dos sal va__ar E a ns to dos sal var
3. De Je sus Sal va do__or De e Je sus Sal va dor

PROF. CRISTIANO SCUCIATTO


(19) 9 9105-9159 cristianomusicas31@gmail.com
http://rioabaixoviola.blogspot.com.br/
COMO AFINAR SUA VIOLA EM RIO ABAIXO
Existem muitas afinaes diferentes de Viola Caipira, Dezenas foram catalogadas
pelo Violeiro Pesquisador Roberto Corra, mas apesar de tantas afinaes
diferentes, na verdade, a afinao de viola mesmo existem DUAS que CEBOLO,
mais usada, e RIO ABAIXO.
As demais afinaes catalogadas seriam algumas variaes dessas duas
principais.
O Rio Abaixo a mesma afinao adotada no Cavaquinho Brasileiro, e no Banjo
Norte-americano. Bem como no autntico Blues Guitar, do Sul dos Estados Unidos.
Inclusive muito usada por Keith Richards do Rolling Stones.

Antes de mais nada voc precisa colocar o encordoamento


prprio (calibragem das cordas) em Rio Abaixo. Compre o
encordoamento Giannini cobra Tenso Pesada.

O 1 par afinado em R D, as duas cordas so afinadas


na mesma altura.
O 2 par afinado em SI B, as duas cordas so afinadas na
mesma altura.
O 3 par afinado em SOL G (a mais grossa) e G oitavado (a mais fina e alta)
O 4 par afinado em R D (a mais grossa) e D oitavado (a mais fina e alta)
O 5 par afinado em SOL G (a mais grossa) e G oitavado (a mais fina e alta)

Mini Afinador Cromtico Planet Waves


um Afinador preciso.
Pequeno Fcil de Usar
Cromtico (F# G#)
Bateria de Ltio de Longa Durao
Tambm serve para Violo, Guitarra Eltrica e Contra Baixo.

KORG Pitch Clip


um Afinador preciso.
Pequeno Fcil de Usar
Cromtico (F# G#)
Bateria de Ltio de Longa Durao
Tambm serve para Violo, Guitarra Eltrica e Contra
Baixo.

NA COMPRA DE UMA VIOLA CAIPIRA NA LOJA DA MUSICA (ARTUR NOGUEIRA)


VOC COMO ALUNO DO PROF. CRISTIANO TEM UM SUPER DESCONTO!

http://rioabaixoviola.blogspot.com.br/