Anda di halaman 1dari 1

Tarado de cumpleaños Git

INTRO: en la LA FA#m MIsus 000455


1/--------12-------12-----/-- 1/------0-------------------------------0------/--
2/-----10-------10--------/- - 2/------5-------------------------------7------/--
3/---9-------11-----------/-- 3/------6-------------------------------6------/--
4/--------------------------/-- 4/------7-------------------------------7------/--
5/--------------------------/-- 5/------0-------------------------------X-----/--
6/--------------------------/-- 6/---------------------------------------X-----/--
LA FA#m
Ya no me lastimas Solo te asesinas con tu vanidad
A F#m
Sexo en la cocina Vendes fantasías pero viene igual
RE MIsus RE MIsus E (779977)
Y hoy me ganas otra vez si ya no hay nada que perder Instrumental

LA FA#m
Busca la serpiente Algo diferente el árbol le da igual
A F#m
Nada encuentra afuera Solo alguien que espera verse en los demás
RE MIsus RE MIsus E (779977)
Y veo las huellas de tus pies Que el viento borra cada vez

CORO:
1/---5-5--4-4---------/
2/---5-5--5-5--7-7---/
3/---6-6--6-6--6-6---/ 3 veces y termina en MIm
4/----------------7-7---/
5/-----------------------/
6/-----------------------/

// // // MIsus
Un año otra vez Es que no lo vez No si no querés Instrumental

LA FA#m
Otro amor prohibido Un gesto escondido en mi corazón
A F#m
Dentro del abrazo Lejos del aplauso nace una canción
RE MIsus RE MIsus E (779977)
Y veo las huellas de tus pies Que el viento borra cada vez…

Un año otra vez Es que no lo vez No si no querés Instrumental... A, F#m


Un año otra vez Es que no lo vez No si no querés Instrumental... A, F#m
A F#m
No no no lo vez…….. es que no lo vez
A F#m
No no no lo vez…….. es que no lo vez…
A F#m
No no no lo vez…….. es que no lo vez…