Anda di halaman 1dari 10

Kell Smith - Era Uma Vez

[Intro] C C4

[Primeira Parte – Primeira Estrofe]

C
Era uma vez
C4
O dia em que todo dia era bom
C
Delicioso gosto e o bom gosto
C4
Das nuvens serem feitas de algodão

[Primeira Parte – Segunda Estrofe]

G5
Dava pra ser herói
Am7
No mesmo dia em que escolhia ser vilão
G5
E acabava tudo em lanche
F9
Um banho quente
C
E talvez um arranhão

[Segunda Parte – Primeira Estrofe]

C
Dava pra ver
C9 F9
A ingenuidade, a inocência

Cantando no tom
C C9
Milhões de mundos e universos tão reais
F9
Quanto a nossa imaginação

[Segunda Parte – Segunda Estrofe]

G5
Bastava um colo, um carinho
Am7
E o remédio era beijo e proteção
G5 F9
Tudo voltava a ser novo no outro dia
C
Sem muita preocupação

[Refrão]

F9 G5
É que a gente quer crescer
Am7
E, quando cresce, quer voltar do início
F9
Porque um joelho ralado
G5 Am7
Dói bem menos que um coração partido

F9 G5
É que a gente quer crescer
Am7
E, quando cresce, quer voltar do início
F9
Porque um joelho ralado
G5 Am7
Dói bem menos que um coração partido

[Terceira Parte – Primeira Estrofe]

C
Dá pra viver

Mesmo depois de descobrir


C4
Que o mundo ficou mau
C
É só não permitir

Que a maldade do mundo


C4
Te pareça normal

[Terceira Parte – Segunda Estrofe]

G5
Pra não perder a magia de acreditar
Am7
Na felicidade real
G5 F9
E entender que ela mora no caminho
C
E não no final

[Refrão]
F9 G5
É que a gente quer crescer
Am7
E, quando cresce, quer voltar do início
F9
Porque um joelho ralado
G5 Am7
Dói bem menos que um coração partido

F9 G5
É que a gente quer crescer
Am7
E, quando cresce, quer voltar do início
F9
Porque um joelho ralado
G5 Am7
Dói bem menos que um coração partido
C9
Era uma vez

[Intro]

Parte 1

C
E|------------------------------------------|
B|-------1----------------1-----------------|
G|-0-------0---0----0-------0---0-----------|
D|---2-------2---2----2-------2---2---------|
A|-3---3------------3---3-------------------|
E|------------------------------------------|

Paete 2

C4
E|----------------0-------------------------|
B|-------1--------1-------------------------|
G|-0-------0---0--0-------------------------|
D|---3-------3----3-------------------------|
A|-3---3----------3-------------------------|
E|------------------------------------------|

[Primeira Parte – Primeira Estrofe]

Parte 1

C
E|------------------------------------------|
B|-------1----------------1-----------------|
G|-0-------0---0----0-------0---0-----------|
D|---2-------2---2----2-------2---2---------|
A|-3---3------------3---3-------------------|
E|------------------------------------------|

Parte 2

C4
E|------------------------------------------|
B|-------1----------------1-----------------|
G|-0-------0---0----0-------0---0-----------|
D|---3-------3---3----3-------3---3---------|
A|-3---3------------3---3-------------------|
E|------------------------------------------|

Parte 1

C
E|------------------------------------------|
B|-------1----------------1-----------------|
G|-0-------0---0----0-------0---0-----------|
D|---2-------2---2----2-------2---2---------|
A|-3---3------------3---3-------------------|
E|------------------------------------------|

Parte 3

C4
E|------------------------------------------|
B|-------1----------------1-----------------|
G|-0-------0---0----0-------0---0-----------|
D|---3-------3---3----3-------3-------------|
A|-3---3------------3---3-------------------|
E|------------------------------------------|

[Primeira Parte - Segunda Estrofe]

Parte 1

G5
E|------------------------------------------|
B|-----------3------------------3-----------|
G|-----0-------0---0------0-------0---------|
D|---0---0-------0------0---0-------0-------|
A|------------------------------------------|
E|-3-------3----------3-------3-------------|

Parte 2

Am7
E|------------------------------------------|
B|-----------1------------------1-----------|
G|-----0-------0---0------0-------0---------|
D|---2---2-------2------2---2-------2-------|
A|-0-------0----------0-------0-------------|
E|------------------------------------------|

Parte 3

G5 F9
E|------------------------------------------|
B|-----------3------1-----------------------|
G|-----0-------0----0-----------------------|
D|---0---0-------0--3-----------------------|
A|------------------------------------------|
E|-3-------3--------1-----------------------|

Parte 4

C
E|------------------------------------------|
B|---------1-----------------1--------------|
G|---0-------0---0--0--------0--------------|
D|-----2-------2------2---2--2--------------|
A|-3-----3----------3---3----3--------------|
E|------------------------------------------|

[Segunda Parte – Primeira Estrofe]

Parte 1

C C9
E|------------------------------------------|
B|-1-------1------1-------1-----------------|
G|-0-0-------0----0-0-------0---------------|
D|-2---2-------2--0---0-------2-------------|
A|-3-----3--------3-----3-------------------|
E|------------------------------------------|

Parte 2

F9
E|------------------------------------------|
B|-1-------1--------1-------1---------------|
G|-0-0-------0---0--0-0-------0-------------|
D|-3---3-------3----3---3-------3-----------|
A|-------3----------------3-----------------|
E|-1----------------1-----------------------|

Parte 1

C C9
E|------------------------------------------|
B|-1-------1------1-------1-----------------|
G|-0-0-------0----0-0-------0---------------|
D|-2---2-------2--0---0-------2-------------|
A|-3-----3--------3-----3-------------------|
E|------------------------------------------|

Parte 2

F9
E|------------------------------------------|
B|-1-------1--------1-------1---------------|
G|-0-0-------0---0--0-0-------0-------------|
D|-3---3-------3----3---3-------3-----------|
A|-------3----------------3-----------------|
E|-1----------------1-----------------------|

Segunda Parte – Segunda Estrofe

Parte 1

G5
E|------------------------------------------|
B|--3-------3--------3-------3--------------|
G|--0-0-------0---0--0-0-------0------------|
D|--0---0-------0----0---0-------0----------|
A|------------------------------------------|
E|--3-----3----------0-----3----------------|

Parte 2

Am7
E|------------------------------------------|
B|-1-------1--------1-------1---------------|
G|-0-0-------0---0--0-0-------0-------------|
D|-2---2-------2----2---2-------2-----------|
A|-0-----0----------0-----0-----------------|
E|------------------------------------------|

Parte 3

G5 F9
E|------------------------------------------|
B|--3-------3------1------------------------|
G|--0-0-------0----0------------------------|
D|--0---0-------0--3------------------------|
A|------------------------------------------|
E|--3-----3--------1------------------------|

Parte 4

C
E|------------------------------------------|
B|---------1----------------1---------------|
G|-0---------0---0--0---------0-------------|
D|---2---2-----2------2---2-----2-----------|
A|-3---3------------3---3-------------------|
E|------------------------------------------|
[Refrão]

Parte 1

F9 G5
E|------------------------------------------|
B|-1-------1------3-------3-----------------|
G|-0-0-------0----0-0-------0---------------|
D|-3---3-------3--0---0-------0-------------|
A|-------3----------------------------------|
E|-1--------------3-----3-------------------|

Parte 2

Am7
E|------------------------------------------|
B|-1-------1------1-------1-----------------|
G|-0-0-------0----0-0-------0---------------|
D|-2---2-------2--2---2-------2-------------|
A|-0-----3--------0-----0-------------------|
E|------------------------------------------|

Parte 1

F9 G5
E|------------------------------------------|
B|-1-------1------3-------3-----------------|
G|-0-0-------0----0-0-------0---------------|
D|-3---3-------3--0---0-------0-------------|
A|-------3----------------------------------|
E|-1--------------3-----3-------------------|

Parte 3

Am7
E|-3-------3------3-------3-----------------|
B|-1-1-------1----1-1-------1---------------|
G|-0---0-------0--0---0-------0-------------|
D|------------------------------------------|
A|-0-----0--------0-----0-------------------|
E|------------------------------------------|

Parte 1

F9 G5
E|------------------------------------------|
B|-1-------1------3-------3-----------------|
G|-0-0-------0----0-0-------0---------------|
D|-3---3-------3--0---0-------0-------------|
A|-------3----------------------------------|
E|-1--------------3-----3-------------------|
Parte 3

Am7
E|-3-------3------3-------3-----------------|
B|-1-1-------1----1-1-------1---------------|
G|-0---0-------0--0---0-------0-------------|
D|------------------------------------------|
A|-0-----0--------0-----0-------------------|
E|------------------------------------------|

Parte 1

F9 G5
E|------------------------------------------|
B|-1-------1------3-------3-----------------|
G|-0-0-------0----0-0-------0---------------|
D|-3---3-------3--0---0-------0-------------|
A|-------3----------------------------------|
E|-1--------------3-----3-------------------|

Parte 4

Am7
E|----------------0-------------------------|
B|-1-------1------1-------------------------|
G|-0-0-------0----0-------------------------|
D|-2---2-------2--2-------------------------|
A|-0-----0--------0-------------------------|
E|------------------------------------------|

[Terceira Parte – Primeira Estrofe]

Parte 1

C
E|------------------------------------------|
B|------------------------------------------|
G|-0-----0---0--0-----0---0-----------------|
D|---2-----2------2-----2-------------------|
A|-3---3--------3---3-----------------------|
E|------------------------------------------|

Parte 2

C4
E|------------------------------------------|
B|------------------------------------------|
G|-0-----0---0--0-----0---0-----------------|
D|---3-----3------3-----3-------------------|
A|-3---3--------3---3-----------------------|
E|------------------------------------------|

Parte 1
C
E|------------------------------------------|
B|------------------------------------------|
G|-0-----0---0--0-----0---0-----------------|
D|---2-----2------2-----2-------------------|
A|-3---3--------3---3-----------------------|
E|------------------------------------------|

Parte 2

C4
E|------------------------------------------|
B|------------------------------------------|
G|-0-----0---0--0-----0---0-----------------|
D|---3-----3------3-----3-------------------|
A|-3---3--------3---3-----------------------|
E|------------------------------------------|

[Terceira Parte – Segunda Estrofe]

Parte 1

G5
E|------------------------------------------|
B|--3-------3--------3-------3--------------|
G|--0-0-------0---0--0-0-------0------------|
D|--0---0-------0----0---0-------0----------|
A|------------------------------------------|
E|--3-----3----------0-----3----------------|

Parte 2

Am7
E|------------------------------------------|
B|-1-------1--------1-------1---------------|
G|-0-0-------0---0--0-0-------0-------------|
D|-2---2-------2----2---2-------2-----------|
A|-0-----0----------0-----0-----------------|
E|------------------------------------------|

Parte 3

G5 F9
E|------------------------------------------|
B|--3-------3------1------------------------|
G|--0-0-------0----0------------------------|
D|--0---0-------0--3------------------------|
A|------------------------------------------|
E|--3-----3--------1------------------------|

Parte 4
C
E|------------------------------------------|
B|---------1----------------1---------------|
G|-0---------0---0--0---------0-------------|
D|---2---2-----2------2---2-----2-----------|
A|-3---3------------3---3-------------------|
E|------------------------------------------|

----------------- Acordes -----------------


Capotraste na 3ª casa
Am7* = X 0 2 0 1 0 - (*Cm7 na forma de Am7)
C* = X 3 2 0 1 0 - (*D# na forma de C)
C4* = X 3 3 0 1 0 - (*D#4 na forma de C4)
C9* = X 3 0 0 1 0 - (*D#9 na forma de C9)
F9* = 1 3 3 0 1 X - (*G#9 na forma de F9)
G5* = 3 X 0 0 3 X - (*A#5 na forma de G5)

Minat Terkait