Anda di halaman 1dari 2

KUPENJAMKAN MATA - SENANG KURASAKAN

E|-----------0-----3-----1-0-----------0-------------------------|

B|-1----3---------------------3--5------------3----------------1|

G|-----------------------------------------------------------------|

D|-----------------2-----------------------------------------------|

A|-3---------3--------------------------------0-----------------0|

E|------------------------------------------------------------------|

MEMBUATKU MELAYANG KEGIRANGAN

(BISA ACAK)

*kunci C* VARIASI 1

E|---------------------------------------------|

B|1---1-----0-----0-------------------------|

G|--0-----0-----0------0----2---------------|

D|--------------------------------------------|

A|3-------------------------------------------|

E|--------------------------------------------|

*kunci C* VARIASI 2

E|------------------------------------------|

B|1----1-----3-----3--------5------------|

G|--0-----0-----0------0------------------|

D|------------------------------------------|

A|3----------------------------------------|

E|------------------------------------------|
ganti baris variasi 1

E|-------------------------------|

B|3----------1---------0-------|

G|------------------------------|

D|------------------------------|

A|2----------3---------0-----|

E|------------------------------|

ganti baris variasi 2

E|------------------------------|

B|6----------5---------3-----|

G|-----------------------------|

D|-----------------------------|

A|5----------3---------2-----|

E|------------------------------|

CLOSING (SETELAH LAGU PENUTUP)

E|-------------------------------------------------|

B|1---3---5---3---1---0-------1---0-----1----|

G|------------------------2---------------0------|

D|------------------------------------------------|

A|------------------------------------------------|

E|-------------------------------------------------|

*SOLO GUNAKAN SENAR B FRET 1,3,5,6,8 DAN GUNAKAN SENAR G FRET 2 UNTUK 1 NADA LEBIH RENDAH
DARI SENAR B FRET 0.

BEREKSPERIMEN LAH*