Anda di halaman 1dari 7

artist: john mayer

song: who says


http://www.johnmayer.com

[Intro]

dsus2 g d/f# em7 a a#°


e|-------0--------------------------------------------------------|
B|-3---------------3-------3-------3-----3---------2-------2------|
G|-----2-----2-2-------0-------2---------------0-------2-------0--|
D|-0---x---0---x-----------------------2-----2--------------------|
A|-------------------------------------------------0---x---1---x--|
E|-----------------3---x---2---x---0---x---0---x------------------|
( 1 2 3 4 | 1 2 3 4 | 1 2 3 4 | 1 2 3 4 )

bm7 e g a dsus2
e|-----------------------0-------------------------------0--------|
B|-2h3---3---------------------0---3-------2-------3-----------3--|
G|-----2-----------1---1-----1---------0-------2-------2-----2----|
D|-----------4-4-----------------------------------0---x---0---x--|
A|-2---x---2---x---------------------------0---x------------------|
E|-----------------0---x---0---x---3---x--------------------------|
( 1 2 3 4 | 1 2 3 4 | 1 2 3 4 | 1 2 3 4 )

g d/f# em7
e|-------0---------------0----------------------------------------|
B|-3-----------3---3---------------3-------3-------3-----3--------|
G|-----2-----2---------2-----2-2-------0-------2---------------0--|
D|-0---x---0---x---0---x---0---x-----------------------2-----2----|
A|----------------------------------------------------------------|
E|---------------------------------3---x---2---x---0---x---0---x--|
( 1 2 3 4 | 1 2 3 4 | 1 2 3 4 | 1 2 3 4 )

a a#° bm7 e g a
e|-----------------------2---------------0------------------------|
B|-2-------2-------2h3-------------------------0---3-------2------|
G|-----2-------0-------2-----------1---1-----1---------0-------2--|
D|---------------------------4-4----------------------------------|
A|-0---x---1---x---2---x---2---x---------------------------0---x--|
E|---------------------------------0---x---0---x---3---x----------|
( 1 2 3 4 | 1 2 3 4 | 1 2 3 4 | 1 2 3 4 )

dsus2
e|-------0-----------------------|
B|-3-----------3---3-----3-------|
G|-----2-----2---------2-----2-2-|
D|-0---x---0---x---0---x---0---x-|
A|-------------------------------|
E|-------------------------------|
( 1 2 3 4 | 1 2 3 4 )
[Chorus]
g d/f# a
e|----------------------------------------------------------------|
B|-3---------3-----3---------3-----2---------3---2-----------2h3--|
G|-----0-0-----0-------2-2-----2-------2-2-----2-----4p2-----2----|
D|-------------------------------------------------------2--------|
A|---------------------------------0---x---0---x---0-------0------|
E|-3---x---3---x---2---x---2---x----------------------------------|
( 1 2 3 4 | 1 2 3 4 | 1 2 3 4 | 1 2 3 4 )

gadd2 d/f# a
e|----------------------------------------------------------------|
B|-3---------3-----3---------3-----2---------3p2---------2---3----|
G|-----2-2-----2-------2-2-----2-------2-2-------4p2-----2---2----|
D|---------------------------------------------------2------------|
A|---------------------------------0---x---0-----------x---0---x--|
E|-3---x---3---x---2---x---2---x----------------------------------|
( 1 2 3 4 | 1 2 3 4 | 1 2 3 4 | 1 2 3 4 )

gadd2 d/f# a#° bm7


e|-------------------------------------------------------2--------|
B|-3---------3-----3---------3-----2-----2---------2h3------------|
G|-----2-2-----2-------2-2-----2-----------------------2-----2----|
D|-------------------------------------2-----2-2---------------4--|
A|---------------------------------1---x---1---x---2---x---2---x--|
E|-3---x---3---x---2---x---2---x----------------------------------|
( 1 2 3 4 | 1 2 3 4 | 1 2 3 4 | 1 2 3 4 )

em7 a asus4
e|-------------------------------------------------0--------------|
B|-3-------------3-------3---------2-------3-------3--------------|
G|-------0-----0-------0-------0-------2-------2---2--------------|
D|-----2-----2-------2-------2---------------------2--------------|
A|---------------------------------0---x---0---x---0--------------|
E|-0---x---0---x---0---x---0---x----------------------------------|
( 1 2 3 4 | 1 2 3 4 | 1 2 3 4 | 1 2 3 4 )

[Verse 2]

dsus2 g d/f# em7 a a#°


e|-------0--------------------------------------------------------|
B|-3---------------3-------3-------3-----3---------2-------2------|
G|-----2-----2-2-------0-------2---------------0-------2-------0--|
D|-0---x---0---x-----------------------2-----2--------------------|
A|-------------------------------------------------0---x---1---x--|
E|-----------------3---x---2---x---0---x---0---x------------------|
( 1 2 3 4 | 1 2 3 4 | 1 2 3 4 | 1 2 3 4 )
bm7 e g a dsus2
e|-------2---------------0-------------------------------0--------|
B|-2h3-------------------------0---3-------2-------3-----------3--|
G|-----------2-----1---1-----1---------0-------2-------2-----2----|
D|-------------4-----------------------------------0---x---0---x--|
A|-2---x---2---x---------------------------0---x------------------|
E|-----------------0---x---0---x---3---x--------------------------|
( 1 2 3 4 | 1 2 3 4 | 1 2 3 4 | 1 2 3 4 )

g d/f# em7
e|-----------------0h2---2---------3-------2-------0--------------|
B|-3-----3-----3---------------3-------3-------3---------3--------|
G|-----2-----2---------2-----2---------0-------2---------------0--|
D|-0---x---0---x---0---x---0---x-----------------------2-----2----|
A|----------------------------------------------------------------|
E|---------------------------------3---x---2---x---0---x---0---x--|
( 1 2 3 4 | 1 2 3 4 | 1 2 3 4 | 1 2 3 4 )

a a#° bm7 e g a
e|-----------------------2---------------0------------------------|
B|-2-------2-------2h3-------------------------0---3-------2------|
G|-----2-------0-------2-----------1---1-----1---------0-------2--|
D|---------------------------4-4----------------------------------|
A|-0---x---1---x---2---x---2---x---------------------------0---x--|
E|---------------------------------0---x---0---x---3---x----------|
( 1 2 3 4 | 1 2 3 4 | 1 2 3 4 | 1 2 3 4 )

dsus2
e|-------0-----------------------|
B|-3-----------3---3-----3-------|
G|-----2-----2---------2-----2-2-|
D|-0---x---0---x---0---x---0---x-|
A|-------------------------------|
E|-------------------------------|
( 1 2 3 4 | 1 2 3 4 )

[Chorus 2]

g d/f# a
e|----------------------------------------------------------------|
B|-3---------3-----3---------3-----2---------3p2---------3p2------|
G|-----0-0-----0-------2-2-----2-------2-2-------4p2---------4p2--|
D|---------------------------------------------------2------------|
A|---------------------------------0---x---0-----------0----------|
E|-3---x---3---x---2---x---2---x----------------------------------|
( 1 2 3 4 | 1 2 3 4 | 1 2 3 4 | 1 2 3 4 )
gadd2 d/f# a
e|----------------------------------------------------------------|
B|-3---------3-----3---------3-----2---------3p2------------------|
G|-----2-2-----2-------2-2-----2-------2-2-------4p2-----2p0------|
D|---------------------------------------------------2h5-----4p2-2|
A|---------------------------------0---x---0----------------------|
E|-3---x---3---x---2---x---2---x----------------------------------|
( 1 2 3 4 | 1 2 3 4 | 1 2 3 4 | 1 2 3 4 )

g d/f# a#° bm7


e|-------------------------------------------------------2--------|
B|-3-----3---------3-----3---------2-----2---------2h3------------|
G|-----0-------0-------2-------2-----------------------2-----2----|
D|-----------0---------------0---------2-----2-2---------------4--|
A|---------------------------------1---x---1---x---2---x---2---x--|
E|-3---x---3---x---2---x---2---x----------------------------------|
( 1 2 3 4 | 1 2 3 4 | 1 2 3 4 | 1 2 3 4 )

em7 a
e|---------------2---0--------------------------------------------|
B|-3-----3---------------3---------2-------3-----5-------3-----2--|
G|-----0-------0-------0-------0-------2-------2-----2-2----------|
D|-----------2---------------2-------------------------------2----|
A|---------------------------------0---x---0---x---0---x---0---x--|
E|-0---x---0---x---0---x---0---x----------------------------------|
( 1 2 3 4 | 1 2 3 4 | 1 2 3 4 | 1 2 3 4 )

[Interlude]

g asus4 a dsus2
e|---------------------------------------0---------0--------------|
B|-0h3---3---------3-------2-------3-----------3---------3--------|
G|-----0-------0-------2-------2-------2-----2---------2-----2-2--|
D|-----------0---------------------0---x---0---x---0---x---0---x--|
A|-----------------0---x---0---x----------------------------------|
E|-3---x---3---x--------------------------------------------------|
( 1 2 3 4 | 1 2 3 4 | 1 2 3 4 | 1 2 3 4 )

g d/f# a
e|----------------------------------------------------------------|
B|-3---------3-----3---------3-----2---------3p2---------3p2------|
G|-----0-0-----0-------2-2-----2-------2-2-------4p2---------4p2--|
D|---------------------------------------------------2------------|
A|---------------------------------0---x---0-----------0----------|
E|-3---x---3---x---2---x---2---x----------------------------------|
( 1 2 3 4 | 1 2 3 4 | 1 2 3 4 | 1 2 3 4 )
gadd2 d/f# a
e|----------------------------------------------------------------|
B|-3---------3-----3---------3-----2---------3p2------------------|
G|-----2-2-----2-------2-2-----2-------2-2-------4p2-----2p0------|
D|---------------------------------------------------2h5-----4p2-2|
A|---------------------------------0---x---0----------------------|
E|-3---x---3---x---2---x---2---x----------------------------------|
( 1 2 3 4 | 1 2 3 4 | 1 2 3 4 | 1 2 3 4 )

g d/f# a#° bm7


e|-------------------------------------------------------2--------|
B|-3-----3---------3-----3---------2-----2---------2h3------------|
G|-----0-------0-------2-------2-----------------------2-----2----|
D|-----------0---------------0---------2-----2-2---------------4--|
A|---------------------------------1---x---1---x---2---x---2---x--|
E|-3---x---3---x---2---x---2---x----------------------------------|
( 1 2 3 4 | 1 2 3 4 | 1 2 3 4 | 1 2 3 4 )

em7 a asus4
e|---------------2---0-----------------------------0--------------|
B|-3-----3---------------3---------2-------3-------3--------------|
G|-----0-------0-------0-------0-------2-------2---2--------------|
D|-----------2---------------2---------------------2--------------|
A|---------------------------------0---x---0---x---0--------------|
E|-0---x---0---x---0---x---0---x----------------------------------|
( 1 2 3 4 | 1 2 3 4 | 1 2 3 4 | 1 2 3 4 )

[Verse 3]

dsus2 g d/f# em7 a a#°


e|-------0--------------------------------------------------------|
B|-3---------------3-------3-------3-----3---------2-------2------|
G|-----2-----2-2-------0-------2---------------0-------2-------0--|
D|-0---x---0---x-----------------------2-----2--------------------|
A|-------------------------------------------------0---x---1---x--|
E|-----------------3---x---2---x---0---x---0---x------------------|
( 1 2 3 4 | 1 2 3 4 | 1 2 3 4 | 1 2 3 4 )

bm7 e g a dsus2
e|-------2---------------0-------------------------------0--------|
B|-2h3-------------------------0---3-------2-------3-----------3--|
G|-----2-----2-----1---1-----1---------0-------2-------2-----2----|
D|-------------4-----------------------------------0---x---0---x--|
A|-2---x---2---x---------------------------0---x------------------|
E|-----------------0---x---0---x---3---x--------------------------|
( 1 2 3 4 | 1 2 3 4 | 1 2 3 4 | 1 2 3 4 )
e|-----------------------------------------------|
B|-3-----3-----3---3-----3-----3---3-----3-----3-|
G|-----2-----2---------2-----2---------2-----2---|
D|-0---x---0---x---0---x---0---x---0---x---0---x-|
A|-----------------------------------------------|
E|-----------------------------------------------|
( 1 2 3 4 | 1 2 3 4 | 1 2 3 4 )

[Last chorus]

g d/f# a
e|----------------------------------------------------------------|
B|-3---------3-----3---------3-----2---------3---2-----------2h3--|
G|-----0-0-----0-------2-2-----2-------2-2-----------4p2-----2----|
D|-------------------------------------------------------2--------|
A|---------------------------------0---x---0---x---0-------0------|
E|-3---x---3---x---2---x---2---x----------------------------------|
( 1 2 3 4 | 1 2 3 4 | 1 2 3 4 | 1 2 3 4 )

gadd2 d/f# a
e|----------------------------------------------------------------|
B|-3---------3-----3---------3-----2-----2---2---3-2h3-2h3-2-----2|
G|-----2-2-----2-------2-2-----2-------2-------2---2---2---2---2--|
D|-----------------------------------------------------------2----|
A|---------------------------------0---x---0---x---0---x---0---x--|
E|-3---x---3---x---2---x---2---x----------------------------------|
( 1 2 3 4 | 1 2 3 4 | 1 2 3 4 | 1 2 3 4 )

g d/f# a#° bm7


e|-------------------------------------------------------2--------|
B|-3-----3---------3-----3---------2-----2---------2h3------------|
G|-----0-------0-------2-------2-----------------------2-----2----|
D|-----------0---------------0---------2-----2-2---------------4--|
A|---------------------------------1---x---1---x---2---x---2---x--|
E|-3---x---3---x---2---x---2---x----------------------------------|
( 1 2 3 4 | 1 2 3 4 | 1 2 3 4 | 1 2 3 4 )

em7 a
e|---------------0------------------------------------------------|
B|-3---------------------3---------2-----3-------5-------3-----2--|
G|-------0-----0-------0-------0-------2-------2-------2----------|
D|-----2-----2-------2-------2---------------2-------2-------2----|
A|---------------------------------0---x---0---x---0---x---0---x--|
E|-0---x---0---x---0---x---0---x----------------------------------|
( 1 2 3 4 | 1 2 3 4 | 1 2 3 4 | 1 2 3 4 )
[End]

g asus4 a d g d/f#
e|----------------------------------------------------------------|
B|-3---------------3-------2-------3-----3---------3-------3------|
G|-----0-0-------------2-------2-------2-----2-2-------0-------2--|
D|-----------0-0-------------------0---x---0---x------------------|
A|-----------------0---x---0---x----------------------------------|
E|-3---x---3---x-----------------------------------3---x---2---x--|
( 1 2 3 4 | 1 2 3 4 | 1 2 3 4 | 1 2 3 4 )

d g d/f# d g d/f#
e|-------0---2---------------------------3---2--------------------|
B|-3-------------3-------3---------3---------------3-------3------|
G|-----2-------2-----0-0-------2-------2-------2-------2-------2--|
D|-0---x---0---x-------------0-----0---x---0---x------------------|
A|----------------------------------------------------------------|
E|-----------------3---x---2---x-------------------3---x---2---x--|
( 1 2 3 4 | 1 2 3 4 | 1 2 3 4 | 1 2 3 4 )

d
e|-2-------------|
B|-3-------------|
G|-2-------------|
D|-0-------------|
A|---------------|
E|---------------|
( 1 2 3 4 )

chords
d dsus2 d/f# e em7 g gadd2 a asus4 a#° bm7
e|--2--|--0--|--2--|--0--|--0--|--3--|--3--|--0--|--0--|--0--|--2--|
B|--3--|--3--|--3--|--0--|--3--|--3--|--3--|--2--|--3--|--2--|--3--|
G|--2--|--2--|--2--|--1--|--0--|--0--|--2--|--2--|--2--|--0--|--2--|
D|--0--|--0--|--0--|--2--|--2--|--0--|--0--|--2--|--2--|--2--|--4--|
A|-----|-----|-----|--2--|--2--|--2--|-----|--0--|--0--|--1--|--2--|
E|-----|-----|--2--|--0--|--0--|--3--|--3--|-----|-----|-----|-----|

************************************

| h = hammer-on
| p = pull-off
| x = thumb slap