Anda di halaman 1dari 6

O Sol

Vitor Kley

Tom: F#m (forma dos acordes no tom de Em)

Capotraste na 2ª casa
[Intro] Em7 D9 Am Em7 D9 Am D4

[TAB - Introdução]

Parte 1 de 2
Em7 D9 Am
E|---3-3-3-3--0--0----0-0-0-0--x-x----------|
B|---3-3-3-3--3--1----1-1-1-1--x-x----------|
G|---0-0-0-0--2--2----2-2-2-2--x-x--2/4\2p0-|
D|---2-2-2-2--0--2----2-2-2-2--x-x----------|
A|---------------0--0-----------------------|
E|-0----------------------------------------|

Parte 2 de 2
Em7 D9 Am D4
E|---3-3-3-3--0--0----0-0-0-0--x-x--3-------|
B|---3-3-3-3--3--1----1-1-1-1--x-x--3-------|
G|---0-0-0-0--2--2----2-2-2-2--x-x--2-------|
D|---2-2-2-2--0--2----2-2-2-2--x-x--0-------|
A|---------------0--0-----------------------|
E|-0----------------------------------------|

[Primeira parte]

Em7
Ô, Sol
D9 Am
Vê se não esquece e me ilumina
Em7 D9 Am
Preciso de você aqui
Em7
Ô, Sol
D9 Am
Vê se enriquece a minha melanina
Em7 D9 Am
Só você me faz sorrir

[TAB - Primeira parte]

Parte 1 de 2
Em7 D9 Am
E|---3-3-3-3--0--0----0-0-0-0--x-x----------|
B|---3-3-3-3--3--1----1-1-1-1--x-x----------|
G|---0-0-0-0--2--2----2-2-2-2--x-x--2/4\2p0-|
D|---2-2-2-2--0--2----2-2-2-2--x-x----------|
A|---------------0--0-----------------------|
E|-0----------------------------------------|

Parte 2 de 2
Em D9 Am D4
E|---3-3-3-3--0--0----0-0-0-0--x-x--3-------|
B|---3-3-3-3--3--1----1-1-1-1--x-x--3-------|
G|---0-0-0-0--2--2----2-2-2-2--x-x--2-------|
D|---2-2-2-2--0--2----2-2-2-2--x-x--0-------|
A|---------------0--0-----------------------|
E|-0----------------------------------------|

Parte 2 de 2
Em D9 Am D4
E|---3-3-3-3--0--0----0-0-0-0--x-x--3-------|
B|---3-3-3-3--3--1----1-1-1-1--x-x--3-------|
G|---0-0-0-0--2--2----2-2-2-2--x-x--2-------|
D|---2-2-2-2--0--2----2-2-2-2--x-x--0-------|
A|---------------0--0-----------------------|
E|-0----------------------------------------|

Parte 2 de 2
Em D9 Am D4
E|---3-3-3-3--0--0----0-0-0-0--x-x--3-------|
B|---3-3-3-3--3--1----1-1-1-1--x-x--3-------|
G|---0-0-0-0--2--2----2-2-2-2--x-x--2-------|
D|---2-2-2-2--0--2----2-2-2-2--x-x--0-------|
A|---------------0--0-----------------------|
E|-0----------------------------------------|

[Pré-refrão]

C7M
E quando você vem
Am7(9) Em
Tudo fica bem mais tranquilo
D4(9)
Ô, tranquilo
C7M
Que assim seja, amém
Am7(9) Em
O seu brilho é o meu abrigo
D4(9)
Meu abrigo

[Refrão]

G/B C5(9)
E toda vez que você sai
Am7
O mundo se distrai
Em7
Quem fica, ficou
D4(9)/A
Quem foi, vai, vai
C5(9) Am7
Toda vez que você sai

O mundo se distrai
Em7
Quem fica, ficou
D4(9)/A C5(9)
Quem foi, vai, vai, vai
Am7 Em7
Quem foi, vai, vai, vai
D4(9)/A
Quem foi

[Primeira parte]

Em7
Ô, Sol
D9 Am
Vê se não esquece e me ilumina
Em7 D9 Am
Preciso de você aqui
Em7
Ô, Sol
D9 Am
Vê se enriquece a minha melanina
Em7 D9 Am
Só você me faz sorrir

[Pré-refrão]

C7M
E quando você vem
Am7(9) Em
Tudo fica bem mais tranquilo
D4(9)
Ô, tranquilo
C7M
Que assim seja, amém
Am7(9) Em
O seu brilho é o meu abrigo
D4(9)
Meu abrigo

[Refrão]

G/B C5(9)
E toda vez que você sai
Am7
O mundo se distrai
Em7
Quem fica, ficou
D4(9)/A
Quem foi, vai, vai
C5(9) Am7
Toda vez que você sai

O mundo se distrai
Em7
Quem fica, ficou
D4(9)/A C5(9)
Quem foi, vai, vai, vai
Am7 Em7
Quem foi, vai, vai, vai
D4(9)/A
Quem foi, vai, vai

[Segunda parte]

C5(9)
Ô, Sol

Vem, aquece a minha alma


Am7
E mantém a minha calma
Em7
Não esquece que eu existo
D4(9)/A
E me faz ficar tranquilo
C5(9)
(Sol) Vem, aquece a minha alma
Am7
E mantém a minha calma
Em7
Não esquece que eu existo
D4(9)/A C5(9)
E me faz ficar tranquilo

D4(9)/A

[Refrão]

C5(9) Am7
E toda vez que você sai

O mundo se distrai
Em7
Quem fica, ficou
D4(9)/A
Quem foi, vai, vai
C5(9) Am7
Toda vez que você sai

O mundo se distrai
Em7
Quem fica, ficou
D4(9)/A C5(9)
Quem foi, vai, vai, vai
Am7 Em7
Quem foi, vai, vai, vai
D4(9)/A C7M
Quem foi, vai, vai, vai

Am* Am7* Am7(9)* C5(9)* C7M* D4*


2ª 2ª 2ª 2ª 2ª 2ª
1 1
2 3 2 1 1
3 2 3 4 2 3 4

1 2

Bm com Bm7 com Bm7(9) com D5(9) com D7M com E4 com
forma de forma de forma de forma de forma de forma de D4
Am Am7 Am7(9) C5(9) C7M
D4(9)* D4(9)/A* D9* Em* Em7* G/B*
2ª 2ª 2ª 2ª 2ª 2ª
5ª 1 5ª 1
2 1 2 1
3 4 1 3 3 3 4 2 3
2
3 4

E4(9) com E4(9)/B E9 com F#m com F#m7 com A/C# com
forma de com forma forma de D9 forma de forma de forma de
D4(9) de D4(9)/A Em Em7 G/B