Anda di halaman 1dari 7

Largado Às Traças

Zé Neto e Cristiano
Composição: André Vox / Pancadinha / Vitor Hugo

Tom: Ebm (forma dos acordes no tom de C#m)

Capotraste na 2ª casa
[Intro] A9 B9 C#m
A9 B9 C#m

[Solo da Introdução]

Parte 1 de 3
E|----------------------------------------------------|
B|-------4-2h4p2---------------6-4h6p4----------------|
G|-4---4---------4---4-4/6---6---------6-3-6-6/8------|
D|---4-------------4-------6--------------------------|
A|----------------------------------------------------|
E|----------------------------------------------------|

Parte 2 de 3
E|----------------------------------------------------|
B|----------------------------------------------------|
G|-3-4-4/6--4-3---------------------------------------|
D|--------------4-------------------------------------|
A|----------------------------------------------------|
E|----------------------------------------------------|

Parte 1 de 3
E|----------------------------------------------------|
B|-------4-2h4p2---------------6-4h6p4----------------|
G|-4---4---------4---4-4/6---6---------6-3-6-6/8------|
D|---4-------------4-------6--------------------------|
A|----------------------------------------------------|
E|----------------------------------------------------|

Parte 3 de 3
E|----------------------------------------------------|
B|----------------------------------------------------|
G|----------------------------------------------------|
D|-7/8-6----------------------------------------------|
A|-------9-8-6----------------------------------------|
E|----------------------------------------------------|

[Primeira Parte]
A9 B9 C#m
Meu orgulho caiu quando subiu o álcool

Aí deu ruim pra mim


A9 B9 C#m
E, pra piorar, tá tocando um modão
B9 Bb9
De arrastar o chifre no asfalto

A9 B9
Tô tentando te esquecer
C#m
Mas meu coração não entende

De novo, eu fechando esse bar


A9 B9 C#m
Afogando a saudade num querosene

[Dedilhado da Primeira parte 1ª estrofe]

Parte 1 de 3
A9 B9
E|------------------------------------------|
B|------------------------------------------|
G|-----2-------2-------4------4-------------|
D|---2---2---2---2---4---4--4---4-----------|
A|-0---------------2------------------------|
E|---------0--------------2-----------------|

Parte 2 de 3
C#m
E|------------------------------------------|
B|------------------------------------------|
G|-----6-------6-------6-------6------------|
D|---6---6---6---6---6---6---6---6----------|
A|-4---------------4------------------------|
E|---------4---------------4----------------|

Parte 1 de 3
A9 B9
E|------------------------------------------|
B|------------------------------------------|
G|-----2-------2-------4------4-------------|
D|---2---2---2---2---4---4--4---4-----------|
A|-0---------------2------------------------|
E|---------0--------------2-----------------|
Parte 3 de 3
C#m B9 Bb9
E|-----------------------2--1---------------|
B|-----------------------2--1---------------|
G|-----6-------6---------4--3---------------|
D|---6---6---6---6-------4--3---------------|
A|-4---------------4-----2--1---------------|
E|---------4--------------------------------|

[Solo da Primeira Parte 1ª estrofe]

Parte 1 de 3
E|-----7---------7--------9-----------9---------------|
B|---7---7-----7---7----9---9-------9---9-------------|
G|-8-------8-8-------10-------10-10-------------------|
D|----------------------------------------------------|
A|----------------------------------------------------|
E|----------------------------------------------------|

Parte 2 de 3
E|-------11-------------11----------------------------|
B|----11----11-------11----11-------------------------|
G|-11----------11-11----------------------------------|
D|----------------------------------------------------|
A|----------------------------------------------------|
E|----------------------------------------------------|

Parte 2 de 3
E|-------11-------------11----------------------------|
B|----11----11-------11----11-------------------------|
G|-11----------11-11----------------------------------|
D|----------------------------------------------------|
A|----------------------------------------------------|
E|----------------------------------------------------|

Parte 1 de 3
E|-----7---------7--------9-----------9---------------|
B|---7---7-----7---7----9---9-------9---9-------------|
G|-8-------8-8-------10-------10-10-------------------|
D|----------------------------------------------------|
A|----------------------------------------------------|
E|----------------------------------------------------|

Parte 2 de 3
E|-------11-------------11----------------------------|
B|----11----11-------11----11-------------------------|
G|-11----------11-11----------------------------------|
D|----------------------------------------------------|
A|----------------------------------------------------|
E|----------------------------------------------------|

Parte 3 de 3
E|-------11-------------------------------------------|
B|----11----11----------------------------------------|
G|-11----------11-11----------------------------------|
D|----------------------------------------------------|
A|----------------------------------------------------|
E|----------------------------------------------------|

[Pré-Refrão]

A9
Vou beijando esse copo
B9
Abraçando as garrafas
C#m
Solidão é companheira nesse risca faca
A9
Enquanto cê não volta
B9
Eu tô largado às traças
C#m
Maldito sentimento que nunca se acaba

A9
Vou beijando esse copo
B9
Abraçando as garrafas
C#m
Solidão é companheira nesse risca faca
A9
Enquanto cê não volta
B9
Eu tô largado às traças
C#m
Maldito sentimento que nunca se acaba

[Refrão]

A9 B9
Ô ô ô, ô ô ô
C#m
A falta de você, bebida não ameniza
A9 B9
Ô ô ô, ô ô ô
C#m
Tô tentando apagar fogo com gasolina

[Intro] A9 B9 C#m
A9 B9 C#m

[Solo da Introdução]

Parte 1 de 3
E|----------------------------------------------------|
B|-------4-2h4p2---------------6-4h6p4----------------|
G|-4---4---------4---4-4/6---6---------6-3-6-6/8------|
D|---4-------------4-------6--------------------------|
A|----------------------------------------------------|
E|----------------------------------------------------|

Parte 2 de 3
E|----------------------------------------------------|
B|----------------------------------------------------|
G|-3-4-4/6--4-3---------------------------------------|
D|--------------4-------------------------------------|
A|----------------------------------------------------|
E|----------------------------------------------------|

Parte 1 de 3
E|----------------------------------------------------|
B|-------4-2h4p2---------------6-4h6p4----------------|
G|-4---4---------4---4-4/6---6---------6-3-6-6/8------|
D|---4-------------4-------6--------------------------|
A|----------------------------------------------------|
E|----------------------------------------------------|

Parte 3 de 3
E|----------------------------------------------------|
B|----------------------------------------------------|
G|----------------------------------------------------|
D|-7/8-6----------------------------------------------|
A|-------9-8-6----------------------------------------|
E|----------------------------------------------------|

[Primeira Parte]
A9 B9 C#m
Meu orgulho caiu quando subiu o álcool

Aí deu ruim pra mim


A9 B9 C#m
E, pra piorar, tá tocando um modão

De arrastar o chifre no asfalto

A9 B9
Tô tentando te esquecer
C#m
Mas meu coração não percebe

De novo, eu fechando esse bar


A9 B9 C#m
Afogando a saudade num querosene

[Pré-Refrão]

A9
Vou beijando esse copo
B9
Abraçando as garrafas
C#m
Solidão é companheira nesse risca faca
A9
Enquanto cê não volta
B9
Eu tô largado às traças
C#m
Maldito sentimento que nunca se acaba

A9
Vou beijando esse copo
B9
Abraçando as garrafas
C#m
Solidão é companheira nesse risca faca
A9
Enquanto cê não volta
B9
Eu tô largado às traças
C#m
Maldito sentimento que nunca se acaba

[Refrão]
A9 B9
Ô ô ô, ô ô ô
C#m
A falta de você, bebida não ameniza
A9 B9
Ô ô ô, ô ô ô
C#m
Tô tentando apagar fogo com gasolina

A9 B9
Ô ô ô, ô ô ô
C#m
A falta de você, bebida não ameniza
A9 B9
Ô ô ô, ô ô ô
C#m
Tô tentando apagar fogo com gasolina

[Final] A9 B9 C#m

[Solo final]

E|----------------------------------------------------|
B|-------4-2h4p2---------------6-4h6p4----------------|
G|-4---4---------4---4-4/6---6---------6-3-6-6/8------|
D|---4-------------4-------6--------------------------|
A|----------------------------------------------------|
E|----------------------------------------------------|

A9* B9* Bb9* C#m*


2ª 2ª 2ª 2ª

2 3 2
3 4 3 4
3 4

B9 com C#9 com C9 com D#m com


forma de A9 forma de B9 forma de forma de
Bb9 C#m