Anda di halaman 1dari 9

Adagio in G minor for Strings and Organ - Tomaso Albinoni (1678-1751)

- arranged in E minor as a guitar duet

***************************************************************************
amended by Weed - 14 August 2000 - weed@venus.co.uk
***************************************************************************
this came to me as 2 separate tabs - theme and organ part - as they both
had the same number of bars (measures) i patched them together and aligned
the bar-lines - but the notes won't necessarily line up - so take care! -
it wd be nice to have it arranged for solo guitar... any volunteers? :)
***************************************************************************

1
e|--0--------------|--0--------------|--0-2-3-------0--|--0--------------|
B|--0--------------|--0--------------|-----------------|-----------------|
G|--0--------------|--0--------------|-----------------|-----------------|
D|-----------------|-----------------|-----------------|-----------------|
A|-----------------|-----------------|-----------------|-----------------|
E|-----------------|-----------------|-----------------|-----------------|
| |
e|-----------------|-----------------|-----------------|-----------------|
B|-----------------|-----------------|-------1----1----|--0----0----0----|
G|-----------------|-----------------|-------0----0----|--0----0----0----|
D|--2----2----2----|--0----0----0----|-------2----2----|--2----2----2----|
A|-----------------|-----------------|--3----3----3----|--2----2----2----|
E|-----------------|-----------------|-----------------|-----------------|

5
|--2-3-5----------|--3-2-3----------|--2-0-2-------0--|--0--------------|
|-----------------|-----------------|-----------------|--0--------------|
|-----------------|-----------------|-----------------|--0--------------|
|-----------------|-----------------|-----------------|-----------------|
|-----------------|-----------------|-----------------|-----------------|
|-----------------|-----------------|-----------------|-----------------|
| |
|-------0----0----|-----------------|-----------------|-----------------|
|-------1----1----|-------2----2----|-------0----0----|-----------------|
|-----------------|-------0----0----|-------2----2----|-----------------|
|-----------------|-------2----2----|-------2----1----|--2----2----2----|
|--0----0----0----|--1----0----0----|--2----2----2----|-----------------|
|-----------------|-----------------|-----------------|-----------------|

9
|--7----5---3-2---0-|--0--------------|--8----7---5-3---2-|--2--------0----|
|-------------------|------------4----|-------------------|----------------|
|-------------------|-----------------|-------------------|----------------|
|-------------------|-----------------|-------------------|----------------|
|-------------------|-----------------|-------------------|----------------|
|-------------------|-----------------|-------------------|----------------|
| |
|--0----------------|-----------------|--2----------------|----------------|
|-----------0-------|-----------------|--4--------3-------|--0-------------|
|--0--------0-------|--2----2----2----|--2--------4-------|--0-------------|
|-------------------|--4----4----4----|-------------------|-------2--------|
|-------------------|-----------------|-------------------|----------------|
|--0----------------|-----------------|-------------------|----------------|

13
|--12----10--12------10------|------------------|--10----8--10--7--8--5--|
|----------------13------12--|--13--------------|------------------------|
|----------------------------|------------------|------------------------|
|----------------------------|------------------|------------------------|
|----------------------------|------------------|------------------------|
|----------------------------|------------------|------------------------|
| |
|--4-------------------------|----------0--5----|--2---------------------|
|--5-------------------------|------------------|--3---------------------|
|----------------------------|-------5----------|------------------------|
|----------------------------|------------------|--0---------------------|
|----------------------------|----0-------------|------------------------|
|--0-------------------------|------------------|------------------------|

16
|--7---------------|--8-----7--8--5--7-----|--5---------------|
|------------------|--8-----------------8--|------------------|
|------------------|--9--------------------|------------------|
|------------------|--10-------------------|------------------|
|------------------|-----------------------|------------------|
|------------------|-----------------------|------------------|
| |
|-------------3----|-----------------------|-------------5----|
|-------0--3-------|-----------------------|----------5-------|
|----0-------------|-----------------------|-------5----------|
|------------------|-----------------------|----4-------------|
|------------------|-----------------------|------------------|
|------------------|-----------------------|------------------|

19
|--7--------8----|--7------------12--|--14--15--14--12--11--12--|
|----------------|-------------------|--------------------------|
|----------------|-------------------|--------------------------|
|----------------|-------------------|--------------------------|
|----------------|-------------------|--------------------------|
|----------------|-------------------|--------------------------|
| |
|-----------------|----------3--7----|--------------------------|
|--5----5----5----|----0--5----------|--0-----------------------|
|------------5----|------------------|--0-----------------------|
|--5----5----7----|------------------|--------------------------|
|-----------------|------------------|--------------------------|
|-----------------|------------------|--0-----------------------|

22
|--10------13--12---10-|--8----------8---12-|------------------12--|
|----------------------|---------10---------|--12----------12------|
|----------------------|--------------------|----------12----------|
|----------------------|--------------------|----------------------|
|----------------------|--------------------|----------------------|
|----------------------|--------------------|----------------------|
| |
|--4-------4------4----|--------------------|----------------------|
|--6-------6------5----|---------5----------|-----------0----------|
|--4-------4-----------|--------------------|----------------------|
|----------------------|--------------------|----------------------|
|----------------------|--------------------|----------------------|
|----------------------|----5---------------|----0-----------------|

25
|---------------7-8-7-5-|--3--------3-5-7-5-3-|--2--------2-3-5-3-2-|
|--10--------10---------|---------------------|---------------------|
|-----------------------|---------------------|---------------------|
|-----------------------|---------------------|---------------------|
|-----------------------|---------------------|---------------------|
|-----------------------|---------------------|---------------------|
| |
|-----------------------|---------------------|---------------------|
|------1----------------|------0--------------|------4--------------|
|-----------------------|------0--------------|------2--------------|
|------3----------------|---------------------|---------------------|
|-----------------------|---------------------|------2--------------|
|-----------------------|------0--------------|---------------------|

28
|--0----------------|--0--------------|--0--------------|--0-2-3--------0--|
|--0----------------|--0--------------|--0--------------|------------------|
|--0----------------|--0--------------|--0--------------|------------------|
|-------------------|-----------------|-----------------|------------------|
|-------------------|-----------------|-----------------|------------------|
|-------------------|-----------------|-----------------|------------------|
| |
|----------------0--|-----------------|-----------------|------------------|
|-------------0-----|-----------------|-----------------|--------1----1----|
|----------0--------|-----------------|-----------------|--------0----0----|
|----1--2-----------|--2----2----2----|--0----0----0----|--------2----2----|
|-------------------|-----------------|-----------------|--3-----3----3----|
|-------------------|-----------------|-----------------|------------------|

32
|--0--------------|--2-3-5----------|--3-2-3----------|--2-0-2--------0--|
|-----------------|-----------------|-----------------|------------------|
|-----------------|-----------------|-----------------|------------------|
|-----------------|-----------------|-----------------|------------------|
|-----------------|-----------------|-----------------|------------------|
|-----------------|-----------------|-----------------|------------------|
| |
|-----------------|-------0----0----|-----------------|------------------|
|--0----0----0----|-------1----1----|-------2----2----|-------0----0-----|
|--0----0----0----|-----------------|-------0----0----|-------2----2-----|
|--2----2----2----|-----------------|-------2----2----|-------2----1-----|
|--2----2----2----|--0----0----0----|--1----0----0----|--2----2----2-----|
|-----------------|-----------------|-----------------|------------------|

36
|--0--------------|--7----5---3-2---0-|--0--------------|--8----7---5-3---2-|
|--0--------------|-------------------|------------4----|-------------------|
|--0--------------|-------------------|-----------------|-------------------|
|-----------------|-------------------|-----------------|-------------------|
|-----------------|-------------------|-----------------|-------------------|
|-----------------|-------------------|-----------------|-------------------|
| |
|-----------------|--0----------------|-----------------|--2----------------|
|-----------------|-----------0-------|-----------------|--4--------3-------|
|-----------------|--0--------0-------|--2----2----2----|--2--------4-------|
|--2----2----2----|-------------------|--4----4----4----|-------------------|
|-----------------|-------------------|-----------------|-------------------|
|-----------------|--0----------------|-----------------|-------------------|

40
|--2--------0----|--12----10--12------10------|------------------|
|----------------|----------------13------12--|--13--------------|
|----------------|----------------------------|------------------|
|----------------|----------------------------|------------------|
|----------------|----------------------------|------------------|
|----------------|----------------------------|------------------|
| |
|----------------|--4-------------------------|----------0--5----|
|--0-------------|--5-------------------------|------------------|
|--0-------------|----------------------------|-------5----------|
|-------2--------|----------------------------|------------------|
|----------------|----------------------------|----0-------------|
|----------------|--0-------------------------|------------------|

43
|--10----8--10--7--8--5--|--7---------------|--8-----7--8--5--7-----|
|------------------------|------------------|--8-----------------8--|
|------------------------|------------------|--9--------------------|
|------------------------|------------------|--10-------------------|
|------------------------|------------------|-----------------------|
|------------------------|------------------|-----------------------|
| |
|--2---------------------|-------------3----|-----------------------|
|--3---------------------|-------0--3-------|-----------------------|
|------------------------|----0-------------|-----------------------|
|--0---------------------|------------------|-----------------------|
|------------------------|------------------|-----------------------|
|------------------------|------------------|-----------------------|

46
|--5---------------|--7---------8----|--7-----------12--|
|------------------|-----------------|------------------|
|------------------|-----------------|------------------|
|------------------|-----------------|------------------|
|------------------|-----------------|------------------|
|------------------|-----------------|------------------|
| |
|-------------5----|-----------------|----------3--7----|
|----------5-------|--5----5----5----|----0--5----------|
|-------5----------|------------5----|------------------|
|----4-------------|--5----5----7----|------------------|
|------------------|-----------------|------------------|
|------------------|-----------------|------------------|

49
|--14--15--14--12--11--12--|--10------13--12---10-|--8----------8---12-|
|--------------------------|----------------------|---------10---------|
|--------------------------|----------------------|--------------------|
|--------------------------|----------------------|--------------------|
|--------------------------|----------------------|--------------------|
|--------------------------|----------------------|--------------------|
| |
|--------------------------|--4-------4------4----|--------------------|
|--0-----------------------|--6-------6------5----|-------------5------|
|--0-----------------------|--4-------4-----------|--------------------|
|--------------------------|----------------------|--------------------|
|--------------------------|----------------------|--------------------|
|--0-----------------------|----------------------|----5---------------|

52
|------------------12--|---------------7-8-7-5-|--3--------3-5-7-5-3-|
|--12----------12------|--10--------10---------|---------------------|
|----------12----------|-----------------------|---------------------|
|----------------------|-----------------------|---------------------|
|----------------------|-----------------------|---------------------|
|----------------------|-----------------------|---------------------|
| |
|----------------------|-----------------------|---------------------|
|-------0--------------|------1----------------|------0--------------|
|----------------------|-----------------------|------0--------------|
|----------------------|------3----------------|---------------------|
|----------------------|-----------------------|---------------------|
|-------0--------------|-----------------------|------0--------------|

55
|--2--------2-3-5-3-2-|--0----------------|--0------0--1-0---0-|
|---------------------|--0----------------|--0-------------4---|
|---------------------|--0----------------|--1-----------------|
|---------------------|-------------------|--0-----------------|
|---------------------|-------------------|--2-----------------|
|---------------------|-------------------|--------------------|
| |
|---------------------|----------------0--|--------------------|
|------4--------------|-------------0-----|--------------------|
|------2--------------|----------0--------|--------------------|
|---------------------|----1--2-----------|--------------------|
|------2--------------|-------------------|--------------------|
|---------------------|-------------------|-----0--------------|

58
|--------------------------|---------0--1-0---0-|--------------------------|
|--3-1-0-1-3-1-0-1-0-------|--0-------------4---|--------------------------|
|--------------------2-1-2-|--------------------|--------------------------|
|--------------------------|--------------------|--------------------------|
|--------------------------|--------------------|--------------------------|
|--------------------------|--------------------|--------------------------|
| |
|--------------------------|--------------------|--------------------------|
|--------------------------|--------------------|--3-1-0-1-3-1-0-1-1-0-----|
|--------------------------|-------1------------|----------------------2-1-|
|--------------------------|-------0------------|--------------------------|
|--------------------------|--------------------|--------------------------|
|--------------------------|----0---------------|--------------------------|

61
|-------------------|--------------------|--0-------------|-------5--6-5-4-5-|
|-------------------|--------1--------1--|--1-----------1-|------------------|
|--2----------------|-----2--------2-----|--2-----------2-|------------------|
|-------------------|--2--------2--------|--2-----------2-|------------------|
|-------------------|--------------------|--------------0-|------------------|
|-------------------|--------------------|--------------0-|------------------|
| |
|-------------------|--------------------|----------------|------------------|
|-------------------|--------------------|----------------|--2---------------|
|-------------2-----|--------------------|----------------|--0---------------|
|----------2--------|--------------------|----------------|--2---------------|
|----0--3--------3--|--------------------|----------------|--0---------------|
|-------------------|--------------------|----------------|--0---------------|

65
|--3-1-0-1-3-1-0-1-0-------|---------------|-------------------|
|--------------------3-2-3-|-------------2-|--3----------------|
|--------------------------|-------------0-|--2----------------|
|--------------------------|-------------2-|--3----------------|
|--------------------------|---------------|-------------------|
|--------------------------|---------------|-------------------|
| |
|--------------------------|--0------------|--------5--6-5-4-5-|
|--------------------------|---------------|-------------------|
|--------------------------|---------------|-------------------|
|--------------------------|---------------|-------------------|
|--------------------------|---------------|-------------------|
|--------------------------|---------------|-------------------|

68
|--------------------------|-------------1----|-------------2----|
|--------------------------|-------------3----|-------------0----|
|--------------------------|-------------2----|-------------2----|
|--------------------------|-------------0----|-------------1----|
|--------------------------|------------------|-------------2----|
|--------------------------|------------------|------------------|
| |
|--3-1-0-1-3-1-0-1-1-0-----|------------------|------------------|
|----------------------3-2-|--3--------3------|-----------0------|
|--------------------------|--------2---------|--------2---------|
|--------------------------|-----0------------|-----1------------|
|--------------------------|------------------|--2---------------|
|--------------------------|------------------|------------------|

71
|--------------------|--0--3--7--12--15--19--|--24-----------|--0------------|
|--0--------------0--|-----------------------|---------------|--0------------|
|--------------0-----|-----------------------|---------------|--0------------|
|-----------2--------|-----------------------|---------------|---------------|
|--------2-----------|-----------------------|---------------|---------------|
|-----0--------------|-----------------------|---------------|---------------|
| |
|--------------------|-----------------------|---------------|---------------|
|--------------------|-----------------------|---------------|---------------|
|--------------------|-----------------------|----------0----|---------------|
|--------------------|-----------------------|----------2----|--2----2----2--|
|--------------------|-----------------------|----------3----|---------------|
|--------------------|-----------------------|----------0----|---------------|

75
|--0--------------|--0-2-3-------0--|--0--------------|--2-3-5----------|
|--0--------------|-----------------|-----------------|-----------------|
|--0--------------|-----------------|-----------------|-----------------|
|-----------------|-----------------|-----------------|-----------------|
|-----------------|-----------------|-----------------|-----------------|
|-----------------|-----------------|-----------------|-----------------|
| |
|-----------------|-----------------|-----------------|-------0----0----|
|-----------------|-------1----1----|--0----0----0----|-------1----1----|
|-----------------|-------0----0----|--0----0----0----|-----------------|
|--0----0----0----|-------2----2----|--2----2----2----|-----------------|
|-----------------|--3----3----3----|--2----2----2----|--0----0----0----|
|-----------------|-----------------|-----------------|-----------------|

79
|--3-2-3----------|--2-0-2--------0--|--0------------|--7----5---3-2---0-|
|-----------------|------------------|--0------------|-------------------|
|-----------------|------------------|--0------------|-------------------|
|-----------------|------------------|---------------|-------------------|
|-----------------|------------------|---------------|-------------------|
|-----------------|------------------|---------------|-------------------|
| |
|-----------------|------------------|---------------|--0----------------|
|-------2----2----|-------0----0-----|---------------|-----------0-------|
|-------0----0----|-------2----2-----|---------------|--0--------0-------|
|-------2----2----|-------2----1-----|--2----2----2--|-------------------|
|--1----0----0----|--2----2----2-----|---------------|-------------------|
|-----------------|------------------|---------------|--0----------------|
83
|--0-------------|--8----7---5-3---2-|--2--------0----|
|-----------4----|-------------------|----------------|
|----------------|-------------------|----------------|
|----------------|-------------------|----------------|
|----------------|-------------------|----------------|
|----------------|-------------------|----------------|
| |
|----------------|--2----------------|----------------|
|----------------|--4--------3-------|--0-------------|
|--2----2----2---|--2--------4-------|--0-------------|
|--4----4----4---|-------------------|-------2--------|
|----------------|-------------------|----------------|
|----------------|-------------------|----------------|

86
|--12----10--12------10------|------------------|--10----8--10--7--8--5--|
|----------------13------12--|--13--------------|------------------------|
|----------------------------|------------------|------------------------|
|----------------------------|------------------|------------------------|
|----------------------------|------------------|------------------------|
|----------------------------|------------------|------------------------|
| |
|--4-------------------------|----------0--5----|--2---------------------|
|--5-------------------------|------------------|--3---------------------|
|----------------------------|-------5----------|------------------------|
|----------------------------|------------------|--0---------------------|
|----------------------------|----0-------------|------------------------|
|--0-------------------------|------------------|------------------------|

89
|--7--------------|--8-----7--8--5--7-----|--5--------------|--7--------8----|
|-----------------|--8-----------------8--|-----------------|----------------|
|-----------------|--9--------------------|-----------------|----------------|
|-----------------|--10-------------------|-----------------|----------------|
|-----------------|-----------------------|-----------------|----------------|
|-----------------|-----------------------|-----------------|----------------|
| |
|-------------3---|-----------------------|-------------5---|----------------|
|-------0--3------|-----------------------|----------5------|--5----5----5---|
|----0------------|-----------------------|-------5---------|------------5---|
|-----------------|-----------------------|----4------------|--5----5----7---|
|-----------------|-----------------------|-----------------|----------------|
|-----------------|-----------------------|-----------------|----------------|

93
|--7-----------12--|--14--15--14--12--11--12--|--10------13--12---10-|
|------------------|--------------------------|----------------------|
|------------------|--------------------------|----------------------|
|------------------|--------------------------|----------------------|
|------------------|--------------------------|----------------------|
|------------------|--------------------------|----------------------|
| |
|----------3--7----|--------------------------|--4-------4------4----|
|----0--5----------|--0-----------------------|--6-------6------5----|
|------------------|--0-----------------------|--4-------4-----------|
|------------------|--------------------------|----------------------|
|------------------|--------------------------|----------------------|
|------------------|--0-----------------------|----------------------|

96
|--8----------8---12-|------------------12--|---------------7-8-7-5-|
|---------10---------|--12----------12------|--10--------10---------|
|--------------------|----------12----------|-----------------------|
|--------------------|----------------------|-----------------------|
|--------------------|----------------------|-----------------------|
|--------------------|----------------------|-----------------------|
| |
|--------------------|----------------------|-----------------------|
|---------5----------|----------0-----------|------1----------------|
|--------------------|----------------------|-----------------------|
|--------------------|----------------------|------3----------------|
|--------------------|----------------------|-----------------------|
|----5---------------|----0-----------------|-----------------------|

99
|--3--------3-5-7-5-3-|--2--------2-3-5-3-2-|--0----------------|
|---------------------|---------------------|--0----------------|
|---------------------|---------------------|--0----------------|
|---------------------|---------------------|-------------------|
|---------------------|---------------------|-------------------|
|---------------------|---------------------|-------------------|
| |
|---------------------|---------------------|----------------0--|
|------0--------------|------4--------------|-------------0-----|
|------0--------------|------2--------------|----------0--------|
|---------------------|---------------------|----1--2-----------|
|---------------------|------2--------------|-------------------|
|------0--------------|---------------------|-------------------|

102
|--0------0--1-0---0-|--------------------------|---------0--1-0---0-|
|--0-------------4---|--3-1-0-1-3-1-0-1-0-------|--0-------------4---|
|--1-----------------|--------------------2-1-2-|--------------------|
|--0-----------------|--------------------------|--------------------|
|--2-----------------|--------------------------|--------------------|
|--------------------|--------------------------|--------------------|
| |
|--------------------|--------------------------|--------------------|
|--------------------|--------------------------|--------------------|
|--------------------|--------------------------|---------1----------|
|--------------------|--------------------------|---------0----------|
|--------------------|--------------------------|--------------------|
|------0-------------|--------------------------|----0---------------|

105
|--------------------------|-------------------|--------------------|
|--------------------------|-------------------|--------1--------1--|
|--------------------------|--2----------------|-----2--------2-----|
|--------------------------|-------------------|--2--------2--------|
|--------------------------|-------------------|--------------------|
|--------------------------|-------------------|--------------------|
| |
|--------------------------|-------------------|--------------------|
|--3-1-0-1-3-1-0-1-1-0-----|-------------------|--------------------|
|----------------------2-1-|-------------2-----|--------------------|
|--------------------------|----------2--------|--------------------|
|--------------------------|----0--3--------3--|--------------------|
|--------------------------|-------------------|--------------------|

108
|--0------------|-------5--6-5-4-5-|--3-1-0-1-3-1-0-1-0-------|--------------|
|--1----------1-|------------------|--------------------3-2-3-|------------2-|
|--2----------2-|------------------|--------------------------|------------0-|
|--2----------2-|------------------|--------------------------|------------2-|
|-------------0-|------------------|--------------------------|--------------|
|-------------0-|------------------|--------------------------|--------------|
| |
|---------------|------------------|--------------------------|--0-----------|
|---------------|--2---------------|--------------------------|--------------|
|---------------|--0---------------|--------------------------|--------------|
|---------------|--2---------------|--------------------------|--------------|
|---------------|--0---------------|--------------------------|--------------|
|---------------|--0---------------|--------------------------|--------------|

112
|-------------------|--------------------------|-----------1------|
|--3----------------|--------------------------|-----------3------|
|--2----------------|--------------------------|-----------2------|
|--3----------------|--------------------------|-----------0------|
|-------------------|--------------------------|------------------|
|-------------------|--------------------------|------------------|
| |
|--------5--6-5-4-5-|--3-1-0-1-3-1-0-1-1-0-----|------------------|
|-------------------|----------------------3-2-|--3--------3------|
|-------------------|--------------------------|--------2---------|
|-------------------|--------------------------|-----0------------|
|-------------------|--------------------------|------------------|
|-------------------|--------------------------|------------------|

115
|-----------2------|--------------------|--0--3--7--12--15--19--|
|-----------0------|--0--------------0--|-----------------------|
|-----------2------|--------------0-----|-----------------------|
|-----------1------|-----------2--------|-----------------------|
|-----------2------|--------2-----------|-----------------------|
|------------------|-----0--------------|-----------------------|
| |
|------------------|--------------------|-----------------------|
|-----------0------|--------------------|-----------------------|
|--------2---------|--------------------|-----------------------|
|-----1------------|--------------------|-----------------------|
|--2---------------|--------------------|-----------------------|
|------------------|--------------------|-----------------------|

118
|--24------------|--0--------------||
|----------------|--0--------------||
|----------------|--0--------------||
|----------------|-----------------||
|----------------|-----------------||
|----------------|-----------------||
| ||
|----------------|-----------------||
|----------------|-----------------||
|----------0-----|-----------------||
|----------2-----|--2----2----2----||
|----------3-----|-----------------||
|----------0-----|-----------------||