Anda di halaman 1dari 4

Cem Mil

Gusttavo Lima
Composição: Gusttavo Lima / Thierry Coringa

Tom: C

[Intro] Dm C G

E|----15/17-17-17p15-15-15h17p15----13-13-13/15-------|
B|-15-------------------------------------------------|
G|----------------------------------------------------|
D|----------------------------------------------------|
A|----------------------------------------------------|
E|----------------------------------------------------|

E|-----------12h13p12---------------------------------|
B|-17-17-17------------15p13-12~~---------------------|
G|----------------------------------------------------|
D|----------------------------------------------------|
A|----------------------------------------------------|
E|----------------------------------------------------|

[Primeira Parte]

Dm F
Não fale mais o meu nome
C
Não me telefone
G Dm
Por favor, não pergunte por mim

F
Vê se me esquece e some
C
Se eu te ver de longe
G Dm
Viro a cara e finjo que não vi

[Segunda Parte]

F
Mas eu não vou mentir
C
Tá doendo lá no fundo
G
Sem você, eu não consigo mais dormir
Dm
Vamos fazer assim
F
Melhor não me procurar
C G
Porque eu morro de medo de te perdoar

[Refrão]

Dm F
Eu tô falando mal de você, iê, iê
Am
Que você nunca soube fazer, iê, iê
G
Cem mil com quem quiser eu aposto
Dm
Se ela bater o dedo, eu volto

F
Eu tô falando mal de você, iê, iê
Am
Que você nunca soube fazer, iê, iê
G
Cem mil com quem quiser eu aposto
Dm
Se ela bater o dedo, eu volto
Dm G Am
Ela não vale um real, mas eu adoro

[Solo] Am Em G Dm
Am Em G D
Dm C G

E|----------------------------------------------------|
B|-13-15-12h13p12--13-12h13p12------------------------|
G|-----------------------------14-12-14-14/16-12-13---|
D|-------------------------------------------------14-|
A|----------------------------------------------------|
E|----------------------------------------------------|

E|----------------------------------------------------|
B|-13-15-12h13p12-13-12h13p12-------------12-13-15-15-|
G|----------------------------14-12-14/16-------------|
D|----------------------------------------------------|
A|----------------------------------------------------|
E|----------------------------------------------------|
E|----------------------------------------------------|
B|----------------------------------------------------|
G|-14-14-12-12-11-11-10-10----------------------------|
D|----------------------------------------------------|
A|----------------------------------------------------|
E|----------------------------------------------------|

E|-----------------------------------10-10-10-10-10---|
B|----------------------------------------------------|
G|-7/9-9-9/7-7-7/5-5-5/7-7-7-7-5/7--------------------|
D|----------------------------------------------------|
A|----------------------------------------------------|
E|----------------------------------------------------|

[Primeira Parte]

Dm F
Não fale mais o meu nome
C
Não me telefone
G Dm
Por favor, não pergunte por mim

F
Vê se me esquece e some
C
Se eu te ver de longe
G Dm
Viro a cara e finjo que não vi

[Segunda Parte]

F
Mas eu não vou mentir
C
Tá doendo lá no fundo
G
Sem você, eu não consigo mais dormir

Dm
Vamos fazer assim
F
Melhor não me procurar
C G
Porque eu morro de medo de te perdoar
[Refrão]

Dm F
Eu tô falando mal de você, iê, iê
Am
Que você nunca soube fazer, iê, iê
G
Cem mil com quem quiser eu aposto
Dm
Se ela bater o dedo, eu volto

F
Eu tô falando mal de você, iê, iê
Am
Que você nunca soube fazer, iê, iê
G
Cem mil com quem quiser eu aposto
Dm
Se ela bater o dedo, eu volto
Dm G Am
Ela não vale um real, mas eu adoro

[Final] Am Em G Dm
Am Em G D
Dm C G

Am C D Dm Em F
1 1 1
2 3 2 1 2 2 1 2 2
3 3 3 3 4

1
2 3