Anda di halaman 1dari 2

TITIBO-TIBO UKULELE TABS

[Intro]
a ||-2p0---0-2-0-2-5-5---------(2)-2p0---0-2-0-2-5-5s7-5-2-0---2-0-2-0---0-----|
E ||-----3---3-----------3-----(2)-----3---------------------1-1-------3-------|
C ||-------------------2---2-3-(3)---------------------------------------------|
G ||---------0-------0-----------------------------------------0---------------|

a |------------------------------------------------2-5--------|
E |--5h6-3-3h5-3-----3h5-3--5h6-3-3h5-3-----3h5-3--3-----3----|
C |----------------3----------------------3--------2-------2--|
G |--3-----------3----------3-----------3-------------(0)-----|

a |--5-4-3-2----------------((-9-10-11-12-))---|
E |----------5-4-3-2---------------------------|
C |------------------4-2-----------------------|
G |--------------------------------------------|

[Verse]
G B7 Em G7 C G
a |---2-2-2-2-----2-2-2-2----|--2-2-2-2----2-2-2-2----|--3-3-3-3----2-2-2~----|
E |---3-3-3-3-----2-2-2-2----|--3-3-3-3----1-1-1-1----|--0-0-0-0----3-3-3~----|
C |---2-2-2-2-----3-3-3-3----|--4-4-4-4----2-2-2-2----|--0-0-0-0----2-2-2~----|
G |---------------2-2-2-2----|------------------------|--0-0-0-0--------------|
Elementary palang.. Mga gawi kong… Imbis na Chinese garter...

Am(break) D~
a |-(0)-----------0~---------|--5-2-0-------2-3-4-5--|
E |-(0)-----------2~---------|--------2p0------------|
C |-(0)-----------2~---------|------------2----------| repeat
G |-(2)-----------2~---------|-----------------------| same pattern for 2nd Verse
Tapos ka-jamming…
[Pre-chorus]
Em Bm C D
a |--2~-2~-----2~-2~---------|---3-3-3-3----0-0-0-0--|
E |--3~-3~-----2~-2~---------|---0-0-0-0----2-2-2-2--|
C |--4~-4~-----2~-2~---------|---0-0-0-0----2-2-2-2--|
G |------------4~-4~---------|---0-0-0-0----2-2-2-2--|

Em Bm C Am D (original has this riff)


a |--2~-2~-----2~-2~---------|---3-3-3-3----0~---0~--|--5-4-3-2----------------((-2-3-4-5-))------|
E |--3~-3~-----2~-2~---------|---0-0-0-0----0~---2~--|----------5-4-3-2---------------------------|
C |--4~-4~-----2~-2~---------|---0-0-0-0----0~---2~--|------------------4-2-----------------------|
G |------------4~-4~---------|---0-0-0-0----2~---2~--|--------------------------------------------|

[Chorus]
G B7 Em G7 C Cm
a |---2-2-2-2-----2-2-2-2----|--2-2-2-2----2-2-2-2----|--3-3-3-3----3-3-3-3----|
E |---3-3-3-3-----2-2-2-2----|--3-3-3-3----1-1-1-1----|--0-0-0-0----3-3-3-3----|
C |---2-2-2-2-----3-3-3-3----|--4-4-4-4----2-2-2-2----|--0-0-0-0----3-3-3-3----|
G |---------------2-2-2-2----|------------------------|--0-0-0-0----0-0-0-0----|

G A C Cm G G7
a |---2~---2~------0~--0~----|--3-3-3-3----3-3-3-3----|---2~---2~------2~--2~--|
E |---3~---3~------0~--0~----|--0-0-0-0----3-3-3-3----|---3~---3~------1~--1~--|
C |---2~---2~------1~--1~----|--0-0-0-0----3-3-3-3----|---2~---2~------2~--2~--|
G |----------------2~--2~----|--0-0-0-0----0-0-0-0----|------------------------|

a |--5-4-3-2----------------((-2-3-4-5-))------|
E |----------5-4-3-2---------------------------|
C |------------------4-2-----------------------|
G |--------------------------------------------|