Anda di halaman 1dari 3

Acoustic guitar enter after keyboard intro, play each chord a few times.

listen to song for correct picking.

_______________ ____________________________________
| x2 | x2 |
| | |
e|---|---|-3-|-5-|---|---|-3-|-----|---|---|-0-|-----|-3-|-5-|---|---|---|---
|-3-|-5-|
B|-7-|-7-|-3-|-5-|-7-|-7-|-3-|-7-7-|-7-|-7-|-0-|-3-2-|-3-|-5-|-7-|-7-|-7-|-7-
|-3-|-5-|
G|-7-|-7-|-4-|-6-|-7-|-7-|-4-|-7-7-|-7-|-7-|-1-|-2-2-|-4-|-6-|-7-|-7-|-7-|-7-
|-4-|-6-|
D|-7-|-7-|-5-|-7-|-7-|-7-|-5-|-7-7-|-7-|-7-|-2-|-2-2-|-5-|-7-|-7-|-7-|-7-|-7-
|-5-|-7-|
A|-5-|-9-|-5-|-7-|-5-|-9-|-5-|-5-4-|---|-0-|-2-|-0-0-|-5-|-7-|-5-|-4-|---|-0-
|-5-|-5-|
E|---|---|-3-|-5-|---|---|-3-|-----|-7-|---|-4-|-----|-3-|-5-|---|---|-7-|---
|-3-|-5-|

Second guitar
e|--------|-----------|------------|---------------|
B|--------|-2-3-5-8-7-|-10b-7------|---------------|
G|--4b-4--|-----------|-------9-7--|-6b------------|
D|--------|-----------|------------|----7--7-------|
A|--------|-----------|------------|---------7-7-5-|
E|--------|-----------|------------|---------------|

distortion part
e|-------|---|---|-----|---------|---------------|
B|-------|---|---|-----|---------|---------------|
G|--7--5-|---|---|-----|---------|---------------|
D|--7--4-|-9-|-9-|---7-|---------|-----------4---|
A|--5--5-|-7-|-6-|---5-|-5---7-2-|-5---2-5-4-2---|
E|-------|---|---|-3---|---2---0-|---2-0---------|

[Solo]

full half half half


e|-------------------------------------10----10------------------------------
--------|
B|--------------------------------10hb----10----10rb--7h8p7p5--5b-3--8-
h10p8p7-------|
G|--9hb-*9-9(rb)p7-------7-9-9b-7--------------------------------------------
--------|
D|-----------------9--/9-----------------------------------------------------
--------|
A|---------------------------------------------------------------------------
--------|
E|---------------------------------------------------------------------------
--------|

ok, here what you need to do is bend the note hold it, then pinch it, then
release
it while pulling of to the next note.

half half half half half half


e|-------------------------------------------------------7-------------------
--------|
B|-*7b---------------7----------------------------7-7------10p7----7---------
--------|
G|-----7------7-9-9b---7-8b-p7-------7-------7-9b-----9b--------9b---9p7-----
--------|
D|-------7--9------------------9p7-9---9--/9-----------------------------9---
--------|
A|---------------------------------------------------------------------------
--------|
E|---------------------------------------------------------------------------
--------|

full half full then a step and an half


e|------7-9-10-9b--------------------------------------------------------10-
14-13----|
B|--10b------------10---10-----10-12-12b-12b-12----------12-----------12-----
--------|
G|--------------------9------9------------------------11-----------11--------
--------|
D|-------------------------------------------------12-----------12-----------
--------|
A|----------------------------------------------14-----------14--------------
--------|
E|---------------------------------------------------------------------------
--------|

full half
e|------18----20----20hb-20(rb)p18-18------------14--17-15-14----------------
--------|
B|--/18----18----18-------------------17b-----15--------------17-15-14-------
--------|
G|-----------------------------------------14--------------------------16-14-
12------|
D|---------------------------------------------------------------------------
--------|
A|---------------------------------------------------------------------------
--------|
E|---------------------------------------------------------------------------
--------|

Well about that scale running after the small D arrpeg im not sure at all,
its
something similar, if you figure it out let me know.