Anda di halaman 1dari 3

ARTISTA: LITTLE JESUS

CANCION: NUEVO MEXICO

TIPO DE TAB: GUITARRA 1

BY JUAN ARCHE

*******INTRO/INTERMEDIO/FINAL: (RIFF PRINCIPAL)******

FIGURA 1

E|-------------|-----------------|------------|----------------

B|-------------|-----------------|------------|----------------

G|-----11------|-----------------|------------|----------------

D|--9------12--|--9--11--12--11--|------9--9--|--9--12--9------

A|-------------|-----------------|--12--------|------------12--

E|-------------|-----------------|------------|----------------

FIGURA 2

E|-------------|-------------|------------

B|-------------|-------------|------------

G|--11---------|-------------|------------

D|------12--9--|--11--12--9--|------9--9--

A|-------------|-------------|--12--------

E|-------------|-------------|------------

FIGURA 3:

E|------------|------------|------------|------------

B|------------|------------|------------|------------

G|------------|------------|------------|------------

D|--9--12--9--|------9--9--|--9--12--9--|------9--9--

A|------------|--12--------|------------|--12--------

E|------------|------------|------------|------------

FIGURA 4:

E|----------------|----------------|-------------

B|----------------|----------------|-------------

G|----------------|----------------|-------------

D|--9------9--11--|----------------|-------------

A|-----12---------|--12--9------9--|--12--9------

E|----------------|---------12-----|---------12--
*****PRE CORO*****

FIGURA 1:

E|--------------|--------------|----------|----------

B|--------------|--------------|----------|----------

G|--16--14--16--|--14--16--16--|--16--18--|--16--18--

D|--x---x---x---|--x---x---x---|----------|----------

A|--14--12--14--|--12--14--14--|--14--16--|--14--16--

E|--------------|--------------|----------|----------

FIGURA 2:

E|--------------|----------|--------------|----------

B|--------------|----------|--------------|----------

G|--16--18--18--|--18--19--|--19--19--14--|--14--14--

D|--------------|----------|--------------|----------

A|--14--16--16--|--16--17--|--17--17--12--|--12--12--

E|--------------|----------|--------------|----------

FIGURA 3:

E|--------------|--------------|--------------

B|--------------|--------------|--------------

G|--16--16--16--|--16--16--16--|--16--16--18--

D|--------------|--------------|--------------

A|--14--14--14--|--14--14--14--|--14--14--16--

E|--------------|--------------|--------------

*****CORO****

FIGURA 1: (RASGUEADO)

E|----------|--------------|----------|--------------

B|----------|--------------|----------|--------------

G|--11--11--|--11--11--11--|--12--12--|--12--12--12--

D|----------|--------------|----------|--------------

A|--9---9---|--9---9---9---|--10--10--|--10--10--10--

E|----------|--------------|----------|--------------
E|----------|--------------|----------|--------------

B|----------|--------------|----------|--------------

G|----------|--------------|----------|--------------

D|--12--12--|--12--12--12--|--11--11--|--11--11--11--

A|----------|--------------|----------|--------------

E|--10--10--|--10--10--10--|--9---9---|--9---9---9---

FIGURA 2: (TOCAR 2 VECES) (RASGUEADO)

E|----------|--------------|----------|--------------

B|----------|--------------|----------|--------------

G|--11--11--|--11--11--11--|--12--12--|--12--12--12--

D|----------|--------------|----------|--------------

A|--9---9---|--9---9---9---|--10--10--|--10--10--10--

E|----------|--------------|----------|--------------

E|----------|--------------|--------|-----------

B|----------|--------------|--------|-----------

G|----------|--------------|--------|-----------

D|--12--12--|--12--12--12--|--7--7--|--7--7--7--

A|----------|--------------|--------|-----------

E|--10--10--|--10--10--10--|--5--5--|--5--5--5--

FIGURA 3: (TOCAR 1 VEZ)(RASGUEADO)

E|-----|-----

B|-----|-----

G|-----|-----

D|--5--|--7--

A|-----|-----

E|--3--|--5--