Anda di halaman 1dari 8

Submitted By: Francis Nifras

Submitted on November 3, 2003


EMail: caspiantrixter@yahoo.com
Bacolod City, Philippines
Eadd2
E|------------------------------------------------------1-----||
B|------------------------------------------------0-----------||
G|------------------------------------------1-----------------||
D|----------------------4------------4------------------------||
A|---------------2------------2-------------------------------||
E|---------0--------------------------------------------------||

E|------------------------------------------||
B|------------------------------------------||
G|------------------------------------------||
D|------------------------------------------||
A|------------------------2-----4/6/4-------||
E|---------0-----2/4------------------------||
C#m7
E|-------------------------------7------||
B|---------5------5p4------------5------||
G|---------4------4---------------------||
D|--------------------------------------||
A|---------4--------------4-------------||
E|--------------------------------------||
(Slide down)
E|---------------------------------------------------0---||
B|---------------9-----7------5------7\--------------0---||
G|---------------------------------------------------2---||
D|--------/9-----9------7-----6------7\------------------||
A|---------------------------------------------0---------||
E|-------------------------------------------------------||

E|-----------------0-----------------------||
B|-----------------------4-----------------||
G|-----------------------------4-----------||
D|--------2/4------------------------------||
A|------------------------------------------||
E|------------------------------------0-----||
E|---------7------------------5-------------------4----------------------2---------||
B|---------9-----9------------7-----7-------------5------5---------------4-----4
----||
G|---------9------------------8-------------------6----------------------4---------||
D|---------------------------------------------------------------------------------||
A|---------7------------------6-------------------4----------------------2---------||
E|----------------------0------------------0--------------------0---------------

----||

E|---------------------------------------------||
B|------------------0--------------------------||
G|------------------------0h1------------------||
D|---------4/6---------------------2-----------||
A|---------------------------------------------||
E|---------2/4---------------------------0-----||

I stand before you


Accused
E|-------------0-----------------------------------------------------------||
B|---------------------0---------------------------------------------------||
G|---------------------------1---------------------------------------------||
D|--------2-------------------------2--------------------------------------||
A|--------------------------------------------------------2-----4/6/4------||
E|-----------------------------------------0-----2/4-----------------------||
Of many crimes
E|-------------------------------7-----||
B|---------5------5/4------------5-----||
G|---------4------4--------------------||
D|-------------------------------------||
A|---------4--------------4------------||
E|-------------------------------------||
But I wanna believe that
E|----------------------------------------------------------0------------------||
B|-----------------------0---------------------------------------0-------------||
G|-----------------------------0h1-----------------------------------2---------||
D|--------4/6-----6---------------------2-----------2---------------------2----||
A|----------------------------------------------0------------------------------||
E|-----------------------------------------------------------------------------||
Love can still survive
E|----------------------------------------------------------||
B|--------------------------------------0-------------------||
G|--------------------------------------------0h1-----------||
D|-----------------------2-----4/6--------------------2-----||
A|--------0-----2/4-----------------------------------------||
E|----------------------------------------------------------||
E|----------------------0-----------------------------------------------------------||
B|----------------------------0-----------------------------------------------------||
G|----------------------------------1----------2-----2-----2------2p1----------1

-----||
D|---------------2-----------------------2-----2-----2-----2------2-------4---------||
A|----------------------------------------------------------------------------------||
E|---------0------------------------------------------------------------------------||

You don t have to say it, I don t have to read your mind
To know the emptiness has finally arrived
E|--------------------------------------------------------------||
B|---------------9--------------------------7-------------------||
G|----------------------9-------------------------8-------------||
D|----------------------------9--------------------------9------||
A|--------7--------------------------6--------------------------||
E|--------------------------------------------------------------||
How was
C#m7
E|-----------------------------------4-----------------------||
B|-----------------------------------------5-----------------||
G|----------------------4-----------------------4------------||
D|---------------6------------6----------------------6-------||
A|--------4--------------------------------------------------||
E|-----------------------------------------------------------||
I
to
Bsus
E|-----------------------------------2----------------------||
B|-----------------------------------------2----------------||
G|----------------------4-----------------------4-----------||
D|---------------4------------4----------------------4------||
A|--------2-------------------------------------------------||
E|----------------------------------------------------------||
Know

right
from
Asus
E|-----------------------------------0------------------------||
B|----------------------------------------0-------------------||
G|----------------------2----------------------2--------------||
D|---------------2------------2----------------------2--------||
A|--------0---------------------------------------------------||
E|------------------------------------------------------------||
wrong
E
E|-------------------------------------------------------||
B|-----------------5------------------7------------------||
G|------------------------------------------8------------||
D|-----------------6-----------------------------9-------||
A|--------3/7------------------6-------------------------||
E|------------------------0------------------------------||
Words
C#m7

were

hardly

E|-----------------------------------4-----------------------||
B|-----------------------------------------5-----------------||
G|----------------------4-----------------------4------------||
D|---------------6------------6----------------------6-------||
A|--------4--------------------------------------------------||
E|-----------------------------------------------------------||
Spoken
so
Bsus
E|-----------------------------------2-----------------------||
B|-----------------------------------------2-----------------||
G|----------------------4-----------------------4------------||
D|---------------4------------4----------------------4-------||
A|--------2--------------------------------------------------||
E|-----------------------------------------------------------||
Where did
I go wrong
Tell me
Asus
E|-----------------------------------0----------------------------------0------------------||
B|----------------------------------------0-----------------------------------0------------||
G|----------------------2----------------------2----------------------------------2--------||
D|---------------2------------2----------------------2-----------2---------------------2---||
A|--------0-------------------------------------------------0------------------------------||
E|-----------------------------------------------------------------------------------------||

Honestly.
E|-----------------------------------0-------------------------||
B|-----------------------------------------0-------------------||
G|-----------------------------------------------1-------------||
D|----------------------2-----------------------------2--------||
A|---------------2------------2--------------------------------||
E|---------0---------------------------------------------------||
If you still
E|------------------------------------------||
B|------------------------------------------||
G|------------------------------------------||
D|------------------------------------------||
A|------------------------2-----4/6/4-------||
E|---------0-----2/4------------------------||
Love me
C#m7
E|-----------------------------7----||
B|--------5------5p4-----------5----||
G|--------4------4------------------||
D|----------------------------------||
A|--------4--------------4----------||
E|----------------------------------||
Look

in

to

my

eyes

E|----------------------------------------------------------0------------------||
B|-----------------------0---------------------------------------0-------------||
G|-----------------------------0h1-----------------------------------2---------||
D|--------4/6-----6---------------------2-----------2---------------------2----||
A|----------------------------------------------0------------------------------||
E|-----------------------------------------------------------------------------||
E|---------------------------------------------------------||
B|--------------------------------------0------------------||
G|--------------------------------------------0h1----------||
D|-----------------------2-----4/6--------------------2----||
A|--------0-----2/4----------------------------------------||
E|---------------------------------------------------------||
honestly
E|----------------------0----------------------------------------------------------||
B|----------------------------0----------------------------------------------------||
G|----------------------------------1----------2-----2-----2-----2p1----------1----||
D|---------------2-----------------------2-----2-----2-----2------2-------4--------||
A|---------------------------------------------------------------------------------||
E|---------0-----------------------------------------------------------------------||
Words have more meaning if they re said at certain times,
I need you now so I can feel alive
How would you know if you won t give me some time
To see that everything could work out, you ll be mine
Will I be lost forever or someday I may find
The words that I ve been searching for are just a piece of rhyme
Honestly, if you still love me, look into my eyes honestly (2X)
Yeah, yeah, yeah
E|--------------------------------------------------------------------------------------||
B|-----------------------------------------------9------------------------7-------------||
G|----------------------2p1---------------------------9------------------------8
---------||
D|---------------2---------------2---------------------------9-----------------------9--||
A|--------------------------------------2/7------------------------6--------------------||
E|---------0----------------------------------------------------------------------------||

Guitar Solo
E|---------12------------11-----12-----11-----------12-----11-----||
B|---------9------12-----12-----12-----------12-----12-----12-----||
G|---------9------------------------------------------------------||
D|----------------------------------------------------------------||
A|----------------------------------------------------------------||
E|----------------------------------------------------------------||
E|------------------------------------------------------------------------||
B|------------------14-----12-----10-----9-----5-----7-----9-----12/9-----||
G|------------------------------------------------------------------------||
D|--------12/14-----14-----13-----11-----9-----6-----7-----9-----13/9-----||
A|------------------------------------------------------------------------||
E|------------------------------------------------------------------------||

E|----------------7-----5-----4-----2-----4-----2------------------||
B|--------7/9-----8-----6-----4-----2-----4-----2----2-----2/4-----||
G|-----------------------------------------------------------------||
D|---------------------------------------------------2-----2/4-----||
A|-----------------------------------------------------------------||
E|-----------------------------------------------------------------||
E|-------------2-------------------4------------------5---------------4--------------2h4p2p0||
B|------0-------------------0------------------0----------------0--------------0------------||
G|------------------------------------------------------------------------------------------||
D|------------------------------------------------------------------------------------------||
A|0------------------0------------------0------------------0---------------0----------------||
E|------------------------------------------------------------------------------------------||

E|-------------4--------------5--------------7--------------9---------------11---------12---||
B|----5/7------------5/7-----------7/9------------9/10------------10/12----------12---------||
G|------------------------------------------------------------------------------------------||
D|------------------------------------------------------------------------------------------||
A|------------------------------------------------------------------------------------------||
E|------------------------------------------------------------------------------------------||
All

the

nights

E|-----------------------------------0-----------------------||
B|-----------------------------------------0-----------------||

G|----------------------1------------------------1-----------||
D|---------------2------------2------------------------2-----||
A|-----------------------------------------------------------||
E|---------0-------------------------------------------------||
Sit
and
wonder
There
E|------------------------------------0-----------------------||
B|----------------------3-------------------3-----------------||
G|---------------2------------2-------------------2-----------||
D|--------0----------------------------------------------0----||
A|------------------------------------------------------------||
E|------------------------------------------------------------||
Must
be more
to
E|-----------------------------------0------------------------||
B|------------------------------------------0-----------------||
G|----------------------2------------------------2------------||
D|---------------2------------2------------------------2------||
A|--------0---------------------------------------------------||
E|------------------------------------------------------------||
Life

I m

sure

that

E|-----------------------------------0------------------------||
B|-----------------------------------------1------------------||
G|----------------------0------------------------0------------||
D|---------------2------------2------------------------2------||
A|--------3---------------------------------------------------||
E|------------------------------------------------------------||
Days
E|-----------------------------------0-----------------------||
B|-----------------------------------------0-----------------||
G|----------------------1------------------------1-----------||
D|---------------2------------2------------------------2-----||
A|-----------------------------------------------------------||
E|---------0-------------------------------------------------||
E|------------------------------------0------------------||
B|----------------------3-------------------3------------||
G|---------------2------------2-------------------2---=--||
D|--------0----------------------------------------------||
A|-------------------------------------------------------||
E|-------------------------------------------------------||
E|-----------------------------------0-------------------------||
B|------------------------------------------0------------------||
G|----------------------2------------------------2-------------||
D|---------------2------------2------------------------2-------||
A|--------0----------------------------------------------------||
E|-------------------------------------------------------------||
Livin with the lonely feeling.
E|--------0---------------------||
B|--------1---------------------||
G|--------0---------------------||

D|--------2---------------------||
A|--------3---------------------||
E|------------------------------||

This tablature contains the important patterns in the playing.


There are things that I ve (intentionally) missed out mainly because
I m already too tired to work on it. It will greatly help if you have a
record of the song. For comments, email me at caspiantrixter@yahoo.com.
P.S.: Don t trust the lyrics.
Can't play "Honestly Acoustic"? Improve your playing via easy step-by-step video
less