Anda di halaman 1dari 12

P alhetada

Alternada
I

Tcnica de Guitarra

Palhetada Alternada I

Assista a aula completa em:


http://www.youtube.com/watch?v=7CWQla7BRCc

P alhetada
Alternada
I

Sumrio
Introduo
Tcnicas e Tcnicas.....................................................................................................03

A Palheta..................................................................................................................... 03
Segurando a Palheta................................................................................................... 04

O Metrnomo.............................................................................................................. 06
Aprendendo a usar o metrnomo................................................................................ 07

Dominando A Subdiviso do Tempo.......................................................................... 07


Duas Palhetadas em Cada Pulsao.......................................................................... 07
Trs Palhetadas em Cada Pulsao........................................................................... 08
Quatro Palhetadas em Cada Pulsao....................................................................... 08
Tablaturas e Exerccios............................................................................................... 08

Salto de Cordas................................................................................................................ 10
Exerccios.................................................................................................................... 10

Glossrio.............................................................................................................................11
Aulas relacionadas........................................................................................................... 11
Crditos............................................................................................................................... 12

P alhetada
Alternada
I

I ntroduo

T cnicas e T cnicas

A tcnica instrumental, embora seja parte importante da formao de todo msico, motivo
de muitas discusses. importante observar que cada aprendiz diferente do outro, possui certas
facilidades e certas dificuldades que so pessoais. Por isso, no devemos ver os exerccios tcnicos
como regras rgidas de postura e movimentao. O estudo da tcnica deve ser encarado como uma
investigao pessoal em que o msico testa suas habilidades e aprende a adaptar-se aos objetivos
que deseja atingir com o instrumento.
Por tanto, faa todos os exerccios com ateno e lembre-se que a tcnica serve para torn-lo
capaz de tocar as coisas simples e as complicadas com a mesma competncia. Quer dizer, busque a
postura e a movimentao mais perfeita pra voc, tentando usar o mnimo de esforo e liberando as
tenses musculares para que seus movimentos possam ser mais livres, geis e coordenados. Comece
sempre tocando um novo exerccio muito devagar para compreender e memorizar a forma mais
eficiente de realizar cada movimento, sempre atento ao som. O som o termmetro da tcnica. Se o
som est bonito e a msica acontece com fluncia sinal de que a tcnica est sendo bem utilizada.
Essa apostila vem acompanhando uma vdeo-aula onde sero explicados de forma mais
detalhada exerccios sobre o assunto. Esse o primeiro tema de vrios outros que abordaremos, e
importante estudar bem todos os exerccios para que voc possa desenvolver uma tcnica bem
apurada.
Na msica podemos entender as tcnicas como elementos de linguagem e expresso de
cada instrumento. comum o uso de acessrios para se conseguir certos timbres ou resultados
sonoros com os instrumentos. No caso de alguns instrumentos de cordas, comum o uso da palheta.
Utilizamos a palheta para tocar as cordas com fluncia e simplicidade, deixando o timbre do
instrumento com mais brilho e o ataque bem definido. Existem vrias formas de se tocar com a
palheta, como: o Sweep Picking, Chicken Picking, a Palhetada Hbrida e a Palhetada Alternada, que
ser nosso foco de estudo nessa apostila.
A tcnica da palhetada alternada consiste em tocar as cordas do instrumento com uma
palheta, sempre alternando a sua direo (...). J para outras tcnicas a alternncia nem sempre
usada.

A Palheta
A palheta um objeto que na maioria das vezes se apresenta num formato triangular em que
uma ponta mais longa que as outras duas. Existem outros modelos como palhetas mais circulares
e at mesmo triangulares porm com pontas de ngulos iguais, mas, em geral, so pouco usadas.
Na hora de escolher uma palheta tambm possvel optar pela cor, material de construo,
espessura e tamanho. Outros fatores tambm influenciam muito na hora de comprar uma palheta,
como por exemplo o instrumento a ser tocado. A indicao de palhetas para guitarra diferente, por
exemplo, das palhetas indicadas para cavaquinho, banjo e outros instrumentos de corda, pois nesse
caso, levado em considerao a distncia entre as cordas, o que faz com que o instrumentista opte
por palhetas menores ou maiores de acordo com seu instrumento. Veja, na pgina seguinte, alguns
dos modelos mais usados e conhecidos entre os guitarristas:

P alhetada
Alternada
I

Joe Satriani
.50mm, .70mm e 1.0mm

Surepicks
.76mm, .91mm e 1.17mm

Woodstock
.50mm, .70mm e 1.00mm

Clssicas de Celulide
.50mm, .70mm, 1.00mm e 1.10mm

Palhetas menores favorecem na hora de tocar rpido pois a necessidade de movimento para
palhetar menor, essas palhetas geralmente so utilizadas por msicos que tocam um som mais
pesado com frases rpidas constantemente. J o uso de palhetas maiores, mais comum entre os
guitarristas com a pegada mais firme, sobretudo no Blues e Rock N' Roll.
Mesmo com tal dica, na hora de escolher a palheta, o fator mais relevante deve ser o
conforto com a palheta durante a execuo. Em palavras mais claras, o melhor tocar e
experimentar todos os modelos possveis pra encontrar aquele que mais se adapta ao seu estilo
pessoal e ao som que deseja fazer.
S e gur ando a P alhe t a

A falta de regras to grande quando falamos de segurar a palheta que vrios guitarristas
possuem jeitos bem personalizados de segur-las. Alguns guitarristas costumam segurar a palheta
com trs dedos como Steve Morse, que usa o dedo polegar de um lado e o indicador e mdio de
outro, mas a forma como a maioria dos guitarristas seguram a palheta com o dedo polegar de um
lado e o indicador do outro.
Veja alguns vdeos para exemplificar melhor:
http://www.youtube.com/watch?v=Mk_GMvIea6s
Steve Morse utilizando 3 dedos para segurar a palheta.

http://www.youtube.com/watch?v=AOsgv_X_cV8
Joe Satriani segurando a palheta com dois depois, da forma mais comum.

http://www.youtube.com/watch?v=57A1jRcSJAM
Edu Ardanuy utilizando movimentos circulares para palhetar.

http://www.youtube.com/watch?v=k6MVUB3lODE
Marc Playle um exemplo de que a tcnica pode ser desenvolvida a partir de necessidades e limitaes. Para isso
necessrio amadurecimento, estudo e muita pesquisa at que se encontre um resultado satisfatrio.

P alhetada
Alternada
I
Uma outra questo que deve ser bem observada sobre a posio da mo enquanto
palhetamos. Alguns guitarristas utilizam a mo apoiada em cima da ponte da guitarra, outros
apoiam os dedos sob o corpo do instrumentos e alguns simplesmente no apoiam a mo em nada.

A escolha da posio da mo deve ser feita a partir da necessidade de se tocar mais ou


menos rpido, com um timbre mais grave ou mais agudo, ao utilizar outras tcnicas como o tapping
e at mesmo se o trecho possui variaes rtmicas. A regra a mesma para essa questo, o melhor a
se fazer experimentar. Assista aula sobre postura pra entender um pouco mais sobre sobre a
questo do posicionamento das mos.

P alhetada
Alternada
I
O M etrnomo
O Metrnomo uma ferramenta utilizada por msicos para auxiliar nos treinamentos
contando e marcando as pulsaes rtmicas atravs de sinais sonoros e visuais. O aparelho foi
inventado no incio do sculo XIX e suas primeiras indicaes de uso encontram-se em algumas
partituras de Beethoven. Com o tempo o metrnomo foi se renovando, e nos dias de hoje possumos
alm dos metrnomos mecnicos ou analgicos, os metrnomos eletrnicos ou digitais.

Metrnomo analgico

Metrnomo digital

A funo do metrnomo determinar o andamento musical atravs de pulsos regulares e


constantes. Cada metrnomo possui uma sonoridade diferente e o andamento por ele reproduzido
ajustado de acordo com a quantidade de pulsos dentro de um minuto, o que chamamos de BPM
(Batimentos Por Minuto).
fcil pensar e entender a ideia do metrnomo: O mesmo espao de tempo, que chamamos
de minuto, pode ser divido em 60 batimentos de duraes iguais, 100 batimentos, ou qualquer outra
quantidade. Quanto mais pulsaes dentro de um minuto, menor ser o espao de tempo entre elas,
o que ocasiona um andamento mais rpido. Pra entender melhor, compare a diviso atravs do
grfico abaixo:
60 partes iguais:
Um minuto

O mesmo espao dividido em 100 partes iguais:


Um minuto

Pela matemtica da coisa, quando o andamento for de 60 BPM temos uma batida a cada
segundo, e quando o metrnomo pulsar no andamento de 100 BPM vamos ter um intervalo menor
que um segundo entre duas batidas, ou seja, batidas mais prximas ou mais rpidas.

P alhetada
Alternada
I
A prendendo a usar o metrnomo
1. Escolha um andamento lento no metrnomo (60 BPM por exemplo) e toque alternadamente
para cima e para baixo apenas a mesma corda sincronizando os toques com os pulsos do
metrnomo.
a)
E|-------------------------------------------------------------------------|
B|-------------------------------------------------------------------------|
G|-------------------------------------------------------------------------|
D|-------------------------------------------------------------------------|
A|-------------------------------------------------------------------------|
E|-X-----------X-----------X-----------X-----------X-----------X-----------|

Ao sentir segurana e firmeza no pulso, passe para a prxima corda at experimentar todas
elas. Aos poucos, aumente o andamento.
b)
E|-------------------------------------------------------------X-----------|
B|-------------------------------------------------X-----------------------|
G|-------------------------------------X-----------------------------------|
D|-------------------------X-----------------------------------------------|
A|-------------X-----------------------------------------------------------|
E|-X-----------------------------------------------------------------------|
E|-X-----------------------------------------------------------------------|
B|-------------X-----------------------------------------------------------|
G|-------------------------X-----------------------------------------------|
D|-------------------------------------X-----------------------------------|
A|-------------------------------------------------X-----------------------|
E|-------------------------------------------------------------X-----------|

D ominando A Subdiviso do Tempo


Subdividir um espao de tempo uma tarefa simples mas requer ateno e concentrao
para que possa ser bem compreendido. A subdiviso do tempo consiste em dividir em espaos
menores cada pulsao que o metrnomo der: a cada pulsao do metrnomo podemos tocar uma
vez, duas vezes, trs vezes, quatro vezes e mais. Enfim, o tempo pode ser subdividido em vrias
partes, desde que sejam constantes.
D uas Palhetadas em C ada Pulsao
Ligue o metrnomo e de acordo com a quantidade de batidas que voc quer dar dentro de
uma mesma pulsao fale palavras com a mesma quantidade de slabas cuja primeira mais forte.
Para subdividir cada pulsao em 2 partes vamos falar a palavra TATO. Vamos falar o TA
em cima da pulsao do metrnomo. Veja o exemplo na vdeo-aula aos 16:46.
importante que voc respeite a acentuao das batidas e, no caso desse exerccio, voc
dever tocar mais forte no primeiro tempo, enquanto fala a slaba TA. Utilize as tablaturas da parte
de exerccio desse captulo para se orientar.

Palhetada
Alternada
I

1. Treine o exerccio de uma palhetada por corda com dois toques a cada pulsao.
2. Treine a mesma subdiviso porm palhetando duas vezes em cada corda.
3. Agora, faa o exerccio de trs palhetadas por corda mantendo a subdiviso de duas
palhetadas a cada pulsao. Repare que ao fazer esse exerccio voc deve ter mais ateno
para que no repita o mesmo movimento ao mudar de corda.
4. Finalize palhetando quatro vezes em cada corda de acordo com a subdiviso do tempo.

Tr s P alhe t adas e m C ada P ulsao

Agora vamos subdividir cada pulsao em trs partes iguais, ou seja, tocar trs palhetadas
em cada pulsao. Pra isso, vamos falar a palavra TMPANO a cada pulsao, tocando mais forte na
slaba TM, que ser tocada em cima do pulso. Veja o exemplo na vdeo-aula clicando aqui.
1. Treine a subdiviso do tempo em trs partes dando uma palhetada por corda.
2. Palhete duas vezes em cada corda respeitando a subdiviso do tempo.
3. Faa o mesmo exerccio com trs palhetadas em cada corda.
4. Pra finalizar palhete quatro vezes em cada corda.

Q uat r o P alhe t adas e m C ada P ulsao

A forma mais simples de subdividir o tempo talvez seja essa j que conhecemos e sabemos
como subdividi-lo em duas partes. Para esse exerccio siga a mesma lgica da subdiviso em duas
partes, mas claro, dobrando a quantidade de notas a cada pulsao, que agora ser 4.

Tablatur a e E xe r ccios
Uma Palhetada por Corda
E|-------------------------------------------------------------X-----------|
B|-------------------------------------------------X-----------------------|
G|-------------------------------------X-----------------------------------|
D|-------------------------X-----------------------------------------------|
A|-------------X-----------------------------------------------------------|
E|-X-----------------------------------------------------------------------|
E|-X-----------------------------------------------------------------------|
B|-------------X-----------------------------------------------------------|
G|-------------------------X-----------------------------------------------|
D|-------------------------------------X-----------------------------------|
A|-------------------------------------------------X-----------------------|
E|-------------------------------------------------------------X-----------|

Palhetada
Alternada
I
Duas Palhetadas por Corda
E|--------------------------------------------------------------X-----x----|
B|--------------------------------------------------X-----x----------------|
G|--------------------------------------X-----x----------------------------|
D|--------------------------X-----x----------------------------------------|
A|--------------X-----x----------------------------------------------------|
E|--X-----x----------------------------------------------------------------|
E|-------------------------------------------------------------------------|
B|--X-----x----------------------------------------------------------------|
G|--------------X-----x----------------------------------------------------|
D|--------------------------X-----x----------------------------------------|
A|--------------------------------------X-----x----------------------------|
E|--------------------------------------------------X-----x----------------|
Trs Palhetadas Por Corda
E|-------------------------------------------------------------X---x---x--|
B|-------------------------------------------------X---x---x--------------|
G|-------------------------------------X---x---x--------------------------|
D|-------------------------X---x---x--------------------------------------|
A|-------------X---x---x--------------------------------------------------|
E|-X---x---x--------------------------------------------------------------|
E|------------------------------------------------------------------------|
B|-X---x---x--------------------------------------------------------------|
G|-------------X---x---x--------------------------------------------------|
D|-------------------------X---x---x--------------------------------------|
A|-------------------------------------X---x---x--------------------------|
E|-------------------------------------------------X---x---x--------------|
Quatro Palhetadas Por Corda
E|-------------------------------------------------------------X--x--x--x--|
B|-------------------------------------------------X--x--x--x--------------|
G|-------------------------------------X--x--x--x--------------------------|
D|-------------------------X--x--x--x--------------------------------------|
A|-------------X--x--x--x--------------------------------------------------|
E|-X--x--x--x--------------------------------------------------------------|
E|-------------------------------------------------------------------------|
B|-X--x--x--x--------------------------------------------------------------|
G|-------------X--x--x--x--------------------------------------------------|
D|-------------------------X--x--x--x--------------------------------------|
A|-------------------------------------X--x--x--x--------------------------|
E|-------------------------------------------------X--x--x--x--------------|

Palhetada
Alternada
I

Pra treinar independncia dos dedos e o sincronismo das mos o primeiro passo treinar
alguns exerccios de alternncia dos quatro dedos da mo esquerda. Inicialmente, cada nmero
corresponder casa e ao dedo, assim como feito na video-aula. Treine todos os exerccios dessa
seo separadamente e com bastante calma.
1234

2134

3124

4123

1243

2143

3142

4132

1324

2314

3214

4213

1342

2341

3241

4231

1423

2413

3412

4312

1432

2431

3421

4321

S alto de C ordas
O Salto de Cordas um recurso muito utilizado pelos guitarrista pois permite conseguir sons
mais agudos e graves em uma determinada frase, alm disso, em alguns casos, pode at facilitar a
localizao de algumas notas. Essa tcnica pode contribuir muito para o desenvolvimento e
evoluo na tcnica da palhetada alternada.
A tcnica consiste em tocar as cordas da guitarra sem um padro de deslocamento e sem a
necessidade de tocar sempre em cordas vizinhas, pra entender melhor o salto de cordas, palhete a
corda 1, depois a corda 2, depois a 1, a 3 e assim por diante. No se esquea de usar sempre a
palhetada alternada.
Exerccio
E|-1-2-3-4---------1-2-3-4---------1-2-3-4---------|
B|---------1-2-3-4---------------------------------|
G|-------------------------1-2-3-4-----------------|
D|-----------------------------------------1-2-3-4-|
A|-------------------------------------------------|
E|-------------------------------------------------|
E|-1-2-3-4---------1-2-3-4-------------------------|
B|-------------------------------------------------|
G|-------------------------------------------------|
D|-------------------------------------------------|
A|---------1-2-3-4---------------------------------|
E|-------------------------1-2-3-4-----------------|

essencial que voc se escute para perceber erros e notar aonde esto as dificuldades, mas
para treinar tcnicas como a palhetada no necessrio estar com o instrumento ligado no
amplificador e muito importante que o treinamento seja feito diariamente. Fique atento a todos os
detalhes da videoaula, pois qualquer desvio de ateno pode gerar grande incompreenso e at
mesmo vcios que futuramente sero difceis de serem tirados. Todos os exerccios revisam o
contedo visto na aula e preparam para nossa segunda aula do tema, ento caso esteja com
dificuldade em algum exerccio persista at obter sucesso!
Bons Estudos e At a Prxima!
10

Palhetada
Alternada
I

Glossrio

Sweep Picking: uma tcnica que consiste em aproveitar o movimentos da palheta em uma
sequncia de notas em cordas vizinhas com palhetadas consecutivas no mesmo sentido, como uma
varredura das cordas.
Chicken Picking: Uma tcnica bastante presente no fraseado de guitarristas de Country, o
Chicken Picking consiste em utilizar os dedos mdio e anelar da mo direita alternando com a
palheta para tocar cordas.
Tapping: Tcnica bastante utilizada por guitarristas de Rock que consiste em atacar as notas
diretamente com a mo direita sobre a escala do instrumento, como se fossem hammer-ons e pulloffs feitos com a mo direita.
Frase: sequncia de notas tocadas uma aps a outra e seguidas de pequena pausa ou
repouso; Pequena melodia criada como parte de uma melodia maior. Aprender a construir frases
essencial para para se criar solos que soem bem estruturados e com sentido musical coerente.
Contratempo: o deslocamento da acentuao natural do compasso para um tempo fraco.
Pode ser entendido tambm como o momento entre dois pulsos musicais, a metade do caminho
entre duas pulsaes. No Reage, o acompanhamento harmnico todo tocado no contratempo.
Tercina: Representa o uso de trs notas em um espao de tempo que normalmente seria
ocupado por duas.
Andamento: a medida da velocidade das pulsaes de uma msica ou trecho musical.
Velocidade: Em msica, costumamos usar o termo velocidade para nos referirmos
quantidade de notas em um espao de tempo.
Metrnomo: Aparelho utilizado para auxiliar na marcao do andamento de uma msica ou
sequncia.
Acentuao: Nos referimos a acentuao ou acento mtrico quando destacamos uma ou
mais notas musicais pelo emprego de maior fora; dinmica.
A ulas relacionadas
Postura: Como segurar o Violo e a Guitarra
http://www.youtube.com/watch?v=bsl-wQVxLdo
Como ler tablaturas
http://www.youtube.com/watch?v=ZuLQMURzkuk
Introduo teoria musical
http://www.youtube.com/watch?v=RWRWMIXaH4k

11

Palhetada
Alternada
I

C rditos
Elaborao Philippe Lobo e Vincius Dias
Diagramao Philippe Lobo
Reviso Adriano Ferreira e Philippe Lobo
Imagens Site oficial Planet Waves e Humberto Lcio
Textos Philippe Lobo e Vincius Dias
Fotos Joo Paulo Castilho
Realizao Cifra Club TV / Studio Sol comunicao digital

Bom Som!

12